  0
SECTION
  2
HEADER
  9
$ACADVER
  1
AC1009
  9
$INSBASE
 10
0.0
 20
0.0
 30
0.0
  9
$EXTMIN
 10
0.0
 20
0.0
 30
0.0
  9
$EXTMAX
 10
308.0
 20
132.0
 30
0.52
  9
$LIMMIN
 10
0.0
 20
0.0
  9
$LIMMAX
 10
10.0
 20
6.0
  9
$ORTHOMODE
 70
     1
  9
$REGENMODE
 70
     1
  9
$FILLMODE
 70
     1
  9
$QTEXTMODE
 70
     0
  9
$MIRRTEXT
 70
     1
  9
$DRAGMODE
 70
     2
  9
$LTSCALE
 40
1.0
  9
$OSMODE
 70
     0
  9
$ATTMODE
 70
     1
  9
$TEXTSIZE
 40
3.38
  9
$TRACEWID
 40
0.05
  9
$TEXTSTYLE
  7
STANDARD
  9
$CLAYER
  8
NEW
  9
$CELTYPE
  6
CONTINUOUS
  9
$CECOLOR
 62
     7
  9
$DIMSCALE
 40
0.35
  9
$DIMASZ
 40
0.18
  9
$DIMEXO
 40
0.0625
  9
$DIMDLI
 40
0.38
  9
$DIMRND
 40
0.0
  9
$DIMDLE
 40
0.0
  9
$DIMEXE
 40
0.18
  9
$DIMTP
 40
0.0
  9
$DIMTM
 40
0.0
  9
$DIMTXT
 40
0.18
  9
$DIMCEN
 40
0.09
  9
$DIMTSZ
 40
0.0
  9
$DIMTOL
 70
     0
  9
$DIMLIM
 70
     0
  9
$DIMTIH
 70
     1
  9
$DIMTOH
 70
     1
  9
$DIMSE1
 70
     0
  9
$DIMSE2
 70
     0
  9
$DIMTAD
 70
     0
  9
$DIMZIN
 70
     0
  9
$DIMBLK
  1

  9
$DIMASO
 70
     1
  9
$DIMSHO
 70
     0
  9
$DIMPOST
  1

  9
$DIMAPOST
  1

  9
$DIMALT
 70
     0
  9
$DIMALTD
 70
     2
  9
$DIMALTF
 40
25.4
  9
$DIMLFAC
 40
1.0
  9
$DIMTOFL
 70
     0
  9
$DIMTVP
 40
0.0
  9
$DIMTIX
 70
     0
  9
$DIMSOXD
 70
     0
  9
$DIMSAH
 70
     0
  9
$DIMBLK1
  1

  9
$DIMBLK2
  1

  9
$DIMSTYLE
  2
*UNNAMED
  9
$DIMCLRD
 70
     0
  9
$DIMCLRE
 70
     0
  9
$DIMCLRT
 70
     0
  9
$DIMTFAC
 40
1.0
  9
$DIMGAP
 40
0.09
  9
$LUNITS
 70
     2
  9
$LUPREC
 70
     4
  9
$SKETCHINC
 40
0.1
  9
$FILLETRAD
 40
0.075
  9
$AUNITS
 70
     0
  9
$AUPREC
 70
     0
  9
$MENU
  1
acad
  9
$ELEVATION
 40
0.0
  9
$PELEVATION
 40
0.0
  9
$THICKNESS
 40
0.0
  9
$LIMCHECK
 70
     0
  9
$BLIPMODE
 70
     1
  9
$CHAMFERA
 40
0.0
  9
$CHAMFERB
 40
0.0
  9
$SKPOLY
 70
     0
  9
$TDCREATE
 40
2449960.403942014
  9
$TDUPDATE
 40
2450185.655756944
  9
$TDINDWG
 40
0.0172832176
  9
$TDUSRTIMER
 40
0.0172832176
  9
$USRTIMER
 70
     1
  9
$ANGBASE
 50
0.0
  9
$ANGDIR
 70
     0
  9
$PDMODE
 70
     0
  9
$PDSIZE
 40
0.0
  9
$PLINEWID
 40
0.0
  9
$COORDS
 70
     0
  9
$SPLFRAME
 70
     0
  9
$SPLINETYPE
 70
     6
  9
$SPLINESEGS
 70
     8
  9
$ATTDIA
 70
     0
  9
$ATTREQ
 70
     1
  9
$HANDLING
 70
     0
  9
$HANDSEED
  5
48F
  9
$SURFTAB1
 70
     6
  9
$SURFTAB2
 70
     6
  9
$SURFTYPE
 70
     6
  9
$SURFU
 70
     6
  9
$SURFV
 70
     6
  9
$UCSNAME
  2

  9
$UCSORG
 10
0.0
 20
0.0
 30
0.0
  9
$UCSXDIR
 10
1.0
 20
0.0
 30
0.0
  9
$UCSYDIR
 10
0.0
 20
1.0
 30
0.0
  9
$PUCSNAME
  2

  9
$PUCSORG
 10
0.0
 20
0.0
 30
0.0
  9
$PUCSXDIR
 10
1.0
 20
0.0
 30
0.0
  9
$PUCSYDIR
 10
0.0
 20
1.0
 30
0.0
  9
$USERI1
 70
     0
  9
$USERI2
 70
     0
  9
$USERI3
 70
     0
  9
$USERI4
 70
     0
  9
$USERI5
 70
     0
  9
$USERR1
 40
0.0
  9
$USERR2
 40
0.0
  9
$USERR3
 40
0.0
  9
$USERR4
 40
0.0
  9
$USERR5
 40
0.0
  9
$WORLDVIEW
 70
     1
  9
$SHADEDGE
 70
     3
  9
$SHADEDIF
 70
    70
  9
$TILEMODE
 70
     1
  9
$MAXACTVP
 70
    16
  9
$PINSBASE
 10
0.0
 20
0.0
 30
0.0
  9
$PLIMCHECK
 70
     0
  9
$PEXTMIN
 10
1.000000E+20
 20
1.000000E+20
 30
1.000000E+20
  9
$PEXTMAX
 10
-1.000000E+20
 20
-1.000000E+20
 30
-1.000000E+20
  9
$PLIMMIN
 10
0.0
 20
0.0
  9
$PLIMMAX
 10
12.0
 20
9.0
  9
$UNITMODE
 70
     0
  9
$VISRETAIN
 70
     0
  9
$PLINEGEN
 70
     0
  9
$PSLTSCALE
 70
     0
  9
$TREEDEPTH
 70
  3020
  9
$DWGCODEPAGE
  3
undefined
  0
ENDSEC
  0
SECTION
  2
TABLES
  0
TABLE
  2
VPORT
 70
     2
  0
VPORT
  2
*ACTIVE
 70
     0
 10
0.0
 20
0.0
 11
1.0
 21
1.0
 12
154.0
 22
96.755945
 13
0.0
 23
0.0
 14
1.0
 24
1.0
 15
0.0
 25
0.0
 16
0.0
 26
0.0
 36
1.0
 17
0.0
 27
0.0
 37
0.0
 40
193.51189
 41
1.591633
 42
50.0
 43
0.0
 44
0.0
 50
0.0
 51
0.0
 71
     0
 72
   100
 73
     0
 74
     0
 75
     0
 76
     0
 77
     0
 78
     0
  0
ENDTAB
  0
TABLE
  2
LTYPE
 70
     1
  0
LTYPE
  2
CONTINUOUS
 70
    64
  3
Descriptive Text
 72
    65
 73
     0
 40
0.0
  0
ENDTAB
  0
TABLE
  2
LAYER
 70
     5
  0
LAYER
  2
0
 70
    64
 62
     7
  6
CONTINUOUS
  0
LAYER
  2
LAYER1
 70
    64
 62
     7
  6
CONTINUOUS
  0
LAYER
  2
DIM
 70
    64
 62
     4
  6
CONTINUOUS
  0
LAYER
  2
DEFPOINTS
 70
    64
 62
     7
  6
CONTINUOUS
  0
LAYER
  2
NEW
 70
    64
 62
     6
  6
CONTINUOUS
  0
ENDTAB
  0
TABLE
  2
STYLE
 70
     2
  0
STYLE
  2
STANDARD
 70
    64
 40
3.38
 41
1.0
 50
15.0
 71
     0
 42
3.38
  3
simplex
  4

  0
STYLE
  2
ROMANS
 70
    64
 40
0.0
 41
1.0
 50
0.0
 71
     0
 42
0.1
  3
simplex
  4

  0
ENDTAB
  0
TABLE
  2
VIEW
 70
     0
  0
ENDTAB
  0
TABLE
  2
UCS
 70
     0
  0
ENDTAB
  0
TABLE
  2
APPID
 70
     1
  0
APPID
  2
ACAD
 70
    64
  0
ENDTAB
  0
TABLE
  2
DIMSTYLE
 70
     0
  0
ENDTAB
  0
ENDSEC
  0
SECTION
  2
BLOCKS
  0
BLOCK
  8
0
  2
CDPS
 70
     0
 10
0.0
 20
0.0
 30
0.0
  3
CDPS
  0
LINE
  8
0
 10
0.0
 20
8.5
 30
0.0
 11
0.0
 21
0.0
 31
0.0
  0
LINE
  8
0
 10
11.0
 20
8.5
 30
0.0
 11
0.0
 21
8.5
 31
0.0
  0
LINE
  8
0
 10
11.0
 20
0.0
 30
0.0
 11
11.0
 21
8.5
 31
0.0
  0
LINE
  8
0
 10
0.0
 20
0.0
 30
0.0
 11
11.0
 21
0.0
 31
0.0
  0
ENDBLK
  8
0
  0
BLOCK
  8
0
  2
CDQTR
 70
     0
 10
0.0
 20
0.0
 30
0.0
  3
CDQTR
  0
LINE
  8
0
 10
0.0
 20
132.0
 30
0.0
 11
308.0
 21
132.0
 31
0.0
  0
LINE
  8
0
 10
308.0
 20
0.0
 30
0.0
 11
0.0
 21
0.0
 31
0.0
  0
LINE
  8
0
 10
0.0
 20
0.0
 30
0.0
 11
0.0
 21
132.0
 31
0.0
  0
LINE
  8
0
 10
308.0
 20
132.0
 30
0.0
 11
308.0
 21
0.0
 31
0.0
  0
ENDBLK
  8
0
  0
ENDSEC
  0
SECTION
  2
ENTITIES
  0
LINE
  8
0
  6
CONTINUOUS
 62
     4
 10
162.238339
 20
102.361284
 30
0.0
 11
162.238339
 21
65.888484
 31
0.0
  0
LINE
  8
0
  6
CONTINUOUS
 62
     4
 10
162.958539
 20
102.361284
 30
0.0
 11
162.958539
 21
65.888484
 31
0.0
  0
LINE
  8
0
  6
CONTINUOUS
 62
     4
 10
168.015539
 20
102.361284
 30
0.0
 11
168.015539
 21
65.888484
 31
0.0
  0
LINE
  8
0
  6
CONTINUOUS
 62
     7
 10
94.370539
 20
98.344284
 30
0.0
 11
94.302939
 21
113.013484
 31
0.0
  0
LINE
  8
0
  6
CONTINUOUS
 62
     6
 10
72.546139
 20
103.084084
 30
0.0
 11
94.348696
 21
103.084084
 31
0.0
  0
LINE
  8
0
  6
CONTINUOUS
 62
     4
 10
72.546139
 20
73.238684
 30
0.0
 11
93.491739
 21
73.238684
 31
0.0
  0
LINE
  8
0
  6
CONTINUOUS
 62
     4
 10
72.546139
 20
72.154484
 30
0.0
 11
95.296139
 21
72.154484
 31
0.0
  0
LINE
  8
0
  6
CONTINUOUS
 62
     6
 10
72.546139
 20
65.888484
 30
0.0
 11
94.032539
 21
65.888484
 31
0.0
  0
LINE
  8
0
  6
CONTINUOUS
 62
     6
 10
72.546139
 20
103.084084
 30
0.0
 11
72.546139
 21
65.888484
 31
0.0
  0
LINE
  8
0
  6
CONTINUOUS
 62
     2
 10
75.073339
 20
103.084084
 30
0.0
 11
75.073339
 21
99.652084
 31
0.0
  0
LINE
  8
0
  6
CONTINUOUS
 62
     2
 10
75.073339
 20
98.027084
 30
0.0
 11
75.073339
 21
96.672484
 31
0.0
  0
LINE
  8
0
  6
CONTINUOUS
 62
     2
 10
75.073339
 20
95.102084
 30
0.0
 11
75.073339
 21
93.711084
 31
0.0
  0
LINE
  8
0
  6
CONTINUOUS
 62
     2
 10
75.073339
 20
92.158884
 30
0.0
 11
75.073339
 21
90.445484
 31
0.0
  0
LINE
  8
0
  6
CONTINUOUS
 62
     2
 10
75.073339
 20
87.510084
 30
0.0
 11
75.073339
 21
89.202684
 31
0.0
  0
LINE
  8
0
  6
CONTINUOUS
 62
     2
 10
75.073339
 20
84.577284
 30
0.0
 11
75.073339
 21
86.337484
 31
0.0
  0
LINE
  8
0
  6
CONTINUOUS
 62
     2
 10
75.073339
 20
83.402084
 30
0.0
 11
75.073339
 21
81.652284
 31
0.0
  0
LINE
  8
0
  6
CONTINUOUS
 62
     2
 10
75.073339
 20
80.747484
 30
0.0
 11
75.073339
 21
79.070484
 31
0.0
  0
LINE
  8
0
  6
CONTINUOUS
 62
     2
 10
75.073339
 20
77.913484
 30
0.0
 11
75.073339
 21
76.163684
 31
0.0
  0
LINE
  8
0
  6
CONTINUOUS
 62
     2
 10
75.073339
 20
74.988484
 30
0.0
 11
75.073339
 21
73.238684
 31
0.0
  0
LINE
  8
0
  6
CONTINUOUS
 62
     2
 10
75.073339
 20
72.154484
 30
0.0
 11
75.073339
 21
70.040684
 31
0.0
  0
LINE
  8
0
  6
CONTINUOUS
 62
     2
 10
75.073339
 20
69.229484
 30
0.0
 11
75.073339
 21
65.888484
 31
0.0
  0
LINE
  8
0
  6
CONTINUOUS
 62
     2
 10
76.518939
 20
103.084084
 30
0.0
 11
76.518939
 21
99.652084
 31
0.0
  0
LINE
  8
0
  6
CONTINUOUS
 62
     2
 10
76.518939
 20
98.027084
 30
0.0
 11
76.518939
 21
96.695884
 31
0.0
  0
LINE
  8
0
  6
CONTINUOUS
 62
     2
 10
76.518939
 20
95.102084
 30
0.0
 11
76.518939
 21
93.711084
 31
0.0
  0
LINE
  8
0
  6
CONTINUOUS
 62
     2
 10
76.518939
 20
92.158884
 30
0.0
 11
76.518939
 21
90.445484
 31
0.0
  0
LINE
  8
0
  6
CONTINUOUS
 62
     2
 10
76.518939
 20
89.249484
 30
0.0
 11
76.518939
 21
87.502284
 31
0.0
  0
LINE
  8
0
  6
CONTINUOUS
 62
     2
 10
76.518939
 20
84.577284
 30
0.0
 11
76.518939
 21
86.314084
 31
0.0
  0
LINE
  8
0
  6
CONTINUOUS
 62
     2
 10
76.518939
 20
83.402084
 30
0.0
 11
76.518939
 21
81.652284
 31
0.0
  0
LINE
  8
0
  6
CONTINUOUS
 62
     2
 10
76.518939
 20
80.747484
 30
0.0
 11
76.518939
 21
79.070484
 31
0.0
  0
LINE
  8
0
  6
CONTINUOUS
 62
     2
 10
76.518939
 20
77.913484
 30
0.0
 11
76.518939
 21
76.163684
 31
0.0
  0
LINE
  8
0
  6
CONTINUOUS
 62
     2
 10
76.518939
 20
74.988484
 30
0.0
 11
76.518939
 21
73.238684
 31
0.0
  0
LINE
  8
0
  6
CONTINUOUS
 62
     2
 10
76.518939
 20
70.040684
 30
0.0
 11
76.518939
 21
72.073884
 31
0.0
  0
LINE
  8
0
  6
CONTINUOUS
 62
     2
 10
76.518939
 20
69.229484
 30
0.0
 11
76.518939
 21
65.888484
 31
0.0
  0
LINE
  8
0
  6
CONTINUOUS
 62
     2
 10
80.853139
 20
103.084084
 30
0.0
 11
80.853139
 21
99.652084
 31
0.0
  0
LINE
  8
0
  6
CONTINUOUS
 62
     2
 10
80.853139
 20
98.027084
 30
0.0
 11
80.853139
 21
96.636084
 31
0.0
  0
LINE
  8
0
  6
CONTINUOUS
 62
     2
 10
80.853139
 20
93.711084
 30
0.0
 11
80.853139
 21
95.026684
 31
0.0
  0
LINE
  8
0
  6
CONTINUOUS
 62
     2
 10
80.853139
 20
92.158884
 30
0.0
 11
80.853139
 21
90.427284
 31
0.0
  0
LINE
  8
0
  6
CONTINUOUS
 62
     2
 10
80.853139
 20
89.226084
 30
0.0
 11
80.853139
 21
87.502284
 31
0.0
  0
LINE
  8
0
  6
CONTINUOUS
 62
     2
 10
80.853139
 20
84.577284
 30
0.0
 11
80.853139
 21
86.327084
 31
0.0
  0
LINE
  8
0
  6
CONTINUOUS
 62
     2
 10
80.853139
 20
83.402084
 30
0.0
 11
80.853139
 21
81.652284
 31
0.0
  0
LINE
  8
0
  6
CONTINUOUS
 62
     2
 10
80.853139
 20
80.747484
 30
0.0
 11
80.853139
 21
78.997684
 31
0.0
  0
LINE
  8
0
  6
CONTINUOUS
 62
     2
 10
80.853139
 20
77.913484
 30
0.0
 11
80.853139
 21
76.163684
 31
0.0
  0
LINE
  8
0
  6
CONTINUOUS
 62
     2
 10
80.853139
 20
74.988484
 30
0.0
 11
80.853139
 21
73.238684
 31
0.0
  0
LINE
  8
0
  6
CONTINUOUS
 62
     2
 10
80.853139
 20
72.154484
 30
0.0
 11
80.853139
 21
70.040684
 31
0.0
  0
LINE
  8
0
  6
CONTINUOUS
 62
     2
 10
80.853139
 20
69.229484
 30
0.0
 11
80.853139
 21
65.888484
 31
0.0
  0
LINE
  8
0
  6
CONTINUOUS
 62
     2
 10
82.296139
 20
103.084084
 30
0.0
 11
82.296139
 21
99.472684
 31
0.0
  0
LINE
  8
0
  6
CONTINUOUS
 62
     2
 10
82.296139
 20
98.027084
 30
0.0
 11
82.296139
 21
96.636084
 31
0.0
  0
LINE
  8
0
  6
CONTINUOUS
 62
     2
 10
82.296139
 20
95.026684
 30
0.0
 11
82.296139
 21
93.711084
 31
0.0
  0
LINE
  8
0
  6
CONTINUOUS
 62
     2
 10
82.296139
 20
92.158884
 30
0.0
 11
82.296139
 21
90.427284
 31
0.0
  0
LINE
  8
0
  6
CONTINUOUS
 62
     2
 10
82.296139
 20
89.226084
 30
0.0
 11
82.296139
 21
87.502284
 31
0.0
  0
LINE
  8
0
  6
CONTINUOUS
 62
     2
 10
82.296139
 20
84.577284
 30
0.0
 11
82.296139
 21
86.327084
 31
0.0
  0
LINE
  8
0
  6
CONTINUOUS
 62
     2
 10
82.296139
 20
83.402084
 30
0.0
 11
82.296139
 21
81.652284
 31
0.0
  0
LINE
  8
0
  6
CONTINUOUS
 62
     2
 10
82.296139
 20
80.747484
 30
0.0
 11
82.296139
 21
78.997684
 31
0.0
  0
LINE
  8
0
  6
CONTINUOUS
 62
     2
 10
82.296139
 20
77.913484
 30
0.0
 11
82.296139
 21
76.163684
 31
0.0
  0
LINE
  8
0
  6
CONTINUOUS
 62
     2
 10
82.296139
 20
74.988484
 30
0.0
 11
82.296139
 21
73.238684
 31
0.0
  0
LINE
  8
0
  6
CONTINUOUS
 62
     2
 10
82.296139
 20
72.154484
 30
0.0
 11
82.296139
 21
70.040684
 31
0.0
  0
LINE
  8
0
  6
CONTINUOUS
 62
     2
 10
82.296139
 20
69.229484
 30
0.0
 11
82.296139
 21
65.888484
 31
0.0
  0
LINE
  8
0
  6
CONTINUOUS
 62
     2
 10
86.268939
 20
103.084084
 30
0.0
 11
86.268939
 21
99.652084
 31
0.0
  0
LINE
  8
0
  6
CONTINUOUS
 62
     2
 10
86.268939
 20
98.027084
 30
0.0
 11
86.268939
 21
96.636084
 31
0.0
  0
LINE
  8
0
  6
CONTINUOUS
 62
     2
 10
86.268939
 20
93.711084
 30
0.0
 11
86.268939
 21
94.979884
 31
0.0
  0
LINE
  8
0
  6
CONTINUOUS
 62
     2
 10
86.268939
 20
92.158884
 30
0.0
 11
86.268939
 21
90.427284
 31
0.0
  0
LINE
  8
0
  6
CONTINUOUS
 62
     2
 10
86.268939
 20
89.226084
 30
0.0
 11
86.268939
 21
87.502284
 31
0.0
  0
LINE
  8
0
  6
CONTINUOUS
 62
     2
 10
86.268939
 20
84.577284
 30
0.0
 11
86.268939
 21
86.314084
 31
0.0
  0
LINE
  8
0
  6
CONTINUOUS
 62
     2
 10
86.268939
 20
83.402084
 30
0.0
 11
86.268939
 21
81.652284
 31
0.0
  0
LINE
  8
0
  6
CONTINUOUS
 62
     2
 10
86.268939
 20
80.747484
 30
0.0
 11
86.268939
 21
78.997684
 31
0.0
  0
LINE
  8
0
  6
CONTINUOUS
 62
     2
 10
86.268939
 20
77.913484
 30
0.0
 11
86.268939
 21
76.163684
 31
0.0
  0
LINE
  8
0
  6
CONTINUOUS
 62
     2
 10
86.268939
 20
74.988484
 30
0.0
 11
86.268939
 21
73.238684
 31
0.0
  0
LINE
  8
0
  6
CONTINUOUS
 62
     2
 10
86.268939
 20
72.154484
 30
0.0
 11
86.268939
 21
70.040684
 31
0.0
  0
LINE
  8
0
  6
CONTINUOUS
 62
     2
 10
86.268939
 20
69.229484
 30
0.0
 11
86.268939
 21
65.888484
 31
0.0
  0
LINE
  8
0
  6
CONTINUOUS
 62
     2
 10
87.714539
 20
103.084084
 30
0.0
 11
87.714539
 21
99.652084
 31
0.0
  0
LINE
  8
0
  6
CONTINUOUS
 62
     2
 10
87.714539
 20
98.027084
 30
0.0
 11
87.714539
 21
96.636084
 31
0.0
  0
LINE
  8
0
  6
CONTINUOUS
 62
     2
 10
87.714539
 20
93.711084
 30
0.0
 11
87.714539
 21
94.979884
 31
0.0
  0
LINE
  8
0
  6
CONTINUOUS
 62
     2
 10
87.714539
 20
92.158884
 30
0.0
 11
87.714539
 21
90.427284
 31
0.0
  0
LINE
  8
0
  6
CONTINUOUS
 62
     2
 10
87.714539
 20
89.226084
 30
0.0
 11
87.714539
 21
87.533484
 31
0.0
  0
LINE
  8
0
  6
CONTINUOUS
 62
     2
 10
87.714539
 20
84.577284
 30
0.0
 11
87.714539
 21
86.327084
 31
0.0
  0
LINE
  8
0
  6
CONTINUOUS
 62
     2
 10
87.714539
 20
83.402084
 30
0.0
 11
87.714539
 21
81.652284
 31
0.0
  0
LINE
  8
0
  6
CONTINUOUS
 62
     2
 10
87.714539
 20
80.747484
 30
0.0
 11
87.714539
 21
78.997684
 31
0.0
  0
LINE
  8
0
  6
CONTINUOUS
 62
     2
 10
87.714539
 20
77.913484
 30
0.0
 11
87.714539
 21
76.163684
 31
0.0
  0
LINE
  8
0
  6
CONTINUOUS
 62
     2
 10
87.714539
 20
74.988484
 30
0.0
 11
87.714539
 21
73.238684
 31
0.0
  0
LINE
  8
0
  6
CONTINUOUS
 62
     2
 10
87.714539
 20
72.154484
 30
0.0
 11
87.714539
 21
70.040684
 31
0.0
  0
LINE
  8
0
  6
CONTINUOUS
 62
     2
 10
87.714539
 20
69.229484
 30
0.0
 11
87.714539
 21
65.888484
 31
0.0
  0
LINE
  8
0
  6
CONTINUOUS
 62
     2
 10
92.046139
 20
103.084084
 30
0.0
 11
92.046139
 21
99.652084
 31
0.0
  0
LINE
  8
0
  6
CONTINUOUS
 62
     2
 10
92.046139
 20
98.027084
 30
0.0
 11
92.046139
 21
96.636084
 31
0.0
  0
LINE
  8
0
  6
CONTINUOUS
 62
     2
 10
92.046139
 20
93.711084
 30
0.0
 11
92.046139
 21
95.047484
 31
0.0
  0
LINE
  8
0
  6
CONTINUOUS
 62
     2
 10
92.046139
 20
92.158884
 30
0.0
 11
92.046139
 21
90.427284
 31
0.0
  0
LINE
  8
0
  6
CONTINUOUS
 62
     2
 10
92.046139
 20
89.226084
 30
0.0
 11
92.046139
 21
87.502284
 31
0.0
  0
LINE
  8
0
  6
CONTINUOUS
 62
     2
 10
92.046139
 20
84.577284
 30
0.0
 11
92.046139
 21
86.327084
 31
0.0
  0
LINE
  8
0
  6
CONTINUOUS
 62
     2
 10
92.046139
 20
83.402084
 30
0.0
 11
92.046139
 21
81.652284
 31
0.0
  0
LINE
  8
0
  6
CONTINUOUS
 62
     2
 10
92.046139
 20
80.747484
 30
0.0
 11
92.046139
 21
78.997684
 31
0.0
  0
LINE
  8
0
  6
CONTINUOUS
 62
     2
 10
92.046139
 20
77.913484
 30
0.0
 11
92.046139
 21
76.163684
 31
0.0
  0
LINE
  8
0
  6
CONTINUOUS
 62
     2
 10
92.046139
 20
74.988484
 30
0.0
 11
92.046139
 21
73.238684
 31
0.0
  0
LINE
  8
0
  6
CONTINUOUS
 62
     2
 10
92.046139
 20
72.154484
 30
0.0
 11
92.046139
 21
70.040684
 31
0.0
  0
LINE
  8
0
  6
CONTINUOUS
 62
     2
 10
92.046139
 20
69.229484
 30
0.0
 11
92.046139
 21
65.888484
 31
0.0
  0
LINE
  8
0
  6
CONTINUOUS
 62
     2
 10
93.491739
 20
103.084084
 30
0.0
 11
93.491739
 21
99.652084
 31
0.0
  0
LINE
  8
0
  6
CONTINUOUS
 62
     2
 10
93.491739
 20
96.636084
 30
0.0
 11
93.491739
 21
97.644884
 31
0.0
  0
LINE
  8
0
  6
CONTINUOUS
 62
     2
 10
93.491739
 20
93.711084
 30
0.0
 11
93.491739
 21
95.070884
 31
0.0
  0
LINE
  8
0
  6
CONTINUOUS
 62
     2
 10
93.491739
 20
92.158884
 30
0.0
 11
93.491739
 21
90.427284
 31
0.0
  0
LINE
  8
0
  6
CONTINUOUS
 62
     2
 10
93.491739
 20
89.226084
 30
0.0
 11
93.491739
 21
87.533484
 31
0.0
  0
LINE
  8
0
  6
CONTINUOUS
 62
     2
 10
93.491739
 20
84.577284
 30
0.0
 11
93.491739
 21
86.327084
 31
0.0
  0
LINE
  8
0
  6
CONTINUOUS
 62
     2
 10
93.491739
 20
83.402084
 30
0.0
 11
93.491739
 21
81.652284
 31
0.0
  0
LINE
  8
0
  6
CONTINUOUS
 62
     2
 10
93.491739
 20
80.747484
 30
0.0
 11
93.491739
 21
78.997684
 31
0.0
  0
LINE
  8
0
  6
CONTINUOUS
 62
     2
 10
93.491739
 20
77.913484
 30
0.0
 11
93.491739
 21
76.163684
 31
0.0
  0
LINE
  8
0
  6
CONTINUOUS
 62
     2
 10
93.491739
 20
74.988484
 30
0.0
 11
93.491739
 21
73.020284
 31
0.0
  0
LINE
  8
0
  6
CONTINUOUS
 62
     2
 10
93.491739
 20
72.154484
 30
0.0
 11
93.491739
 21
70.040684
 31
0.0
  0
LINE
  8
0
  6
CONTINUOUS
 62
     2
 10
93.491739
 20
69.229484
 30
0.0
 11
93.491739
 21
65.888484
 31
0.0
  0
LINE
  8
0
  6
CONTINUOUS
 62
     7
 10
94.032539
 20
73.381684
 30
0.0
 11
94.032539
 21
96.763484
 31
0.0
  0
LINE
  8
0
  6
CONTINUOUS
 62
     7
 10
94.079339
 20
71.800884
 30
0.0
 11
94.079339
 21
57.493084
 31
0.0
  0
CIRCLE
  8
0
  6
CONTINUOUS
 62
     6
 10
68.620139
 20
84.260084
 30
0.0
 40
0.7228
  0
LINE
  8
0
  6
CONTINUOUS
 62
     7
 10
68.620139
 20
86.425884
 30
0.0
 11
68.620139
 21
82.094284
 31
0.0
  0
LINE
  8
0
  6
CONTINUOUS
 62
     7
 10
70.785939
 20
84.260084
 30
0.0
 11
66.454339
 21
84.260084
 31
0.0
  0
CIRCLE
  8
0
  6
CONTINUOUS
 62
     6
 10
126.353139
 20
84.304284
 30
0.0
 40
0.7228
  0
LINE
  8
0
  6
CONTINUOUS
 62
     7
 10
126.397339
 20
86.425884
 30
0.0
 11
126.397339
 21
82.094284
 31
0.0
  0
LINE
  8
0
  6
CONTINUOUS
 62
     7
 10
124.231539
 20
84.260084
 30
0.0
 11
128.563139
 21
84.260084
 31
0.0
  0
LINE
  8
0
  6
CONTINUOUS
 62
     7
 10
99.923981
 20
98.237765
 30
0.0
 11
99.944939
 21
112.425884
 31
0.0
  0
LINE
  8
0
  6
CONTINUOUS
 62
     6
 10
122.109939
 20
103.084084
 30
0.0
 11
99.900739
 21
103.084084
 31
0.0
  0
LINE
  8
0
  6
CONTINUOUS
 62
     6
 10
122.109939
 20
65.888484
 30
0.0
 11
99.900739
 21
65.888484
 31
0.0
  0
LINE
  8
0
  6
CONTINUOUS
 62
     6
 10
122.109939
 20
103.084084
 30
0.0
 11
122.109939
 21
65.888484
 31
0.0
  0
LINE
  8
0
  6
CONTINUOUS
 62
     4
 10
119.582739
 20
103.084084
 30
0.0
 11
119.582739
 21
65.888484
 31
0.0
  0
LINE
  8
0
  6
CONTINUOUS
 62
     4
 10
118.137139
 20
103.084084
 30
0.0
 11
118.137139
 21
65.888484
 31
0.0
  0
LINE
  8
0
  6
CONTINUOUS
 62
     7
 10
98.907539
 20
72.976084
 30
0.0
 11
100.126939
 21
73.337484
 31
0.0
  0
LINE
  8
0
  6
CONTINUOUS
 62
     7
 10
99.809739
 20
71.530484
 30
0.0
 11
101.346339
 21
72.027084
 31
0.0
  0
LINE
  8
0
  6
CONTINUOUS
 62
     7
 10
98.907539
 20
72.976084
 30
0.0
 11
101.299539
 21
72.027084
 31
0.0
  0
LINE
  8
0
  6
CONTINUOUS
 62
     7
 10
98.907539
 20
97.938684
 30
0.0
 11
100.126939
 21
98.297484
 31
0.0
  0
LINE
  8
0
  6
CONTINUOUS
 62
     7
 10
99.809739
 20
96.493084
 30
0.0
 11
101.346339
 21
97.351084
 31
0.0
  0
LINE
  8
0
  6
CONTINUOUS
 62
     7
 10
98.907539
 20
97.938684
 30
0.0
 11
101.299539
 21
97.351084
 31
0.0
  0
LINE
  8
0
  6
CONTINUOUS
 62
     7
 10
99.856539
 20
71.800884
 30
0.0
 11
99.856539
 21
57.493084
 31
0.0
  0
LINE
  8
0
  6
CONTINUOUS
 62
     4
 10
113.802939
 20
103.084084
 30
0.0
 11
113.802939
 21
65.888484
 31
0.0
  0
LINE
  8
0
  6
CONTINUOUS
 62
     4
 10
112.359939
 20
103.084084
 30
0.0
 11
112.359939
 21
65.888484
 31
0.0
  0
LINE
  8
0
  6
CONTINUOUS
 62
     4
 10
108.296139
 20
103.084084
 30
0.0
 11
108.296139
 21
65.888484
 31
0.0
  0
LINE
  8
0
  6
CONTINUOUS
 62
     4
 10
106.853139
 20
103.084084
 30
0.0
 11
106.853139
 21
65.888484
 31
0.0
  0
LINE
  8
0
  6
CONTINUOUS
 62
     4
 10
102.339539
 20
103.084084
 30
0.0
 11
102.339539
 21
65.888484
 31
0.0
  0
LINE
  8
0
  6
CONTINUOUS
 62
     4
 10
100.984939
 20
103.084084
 30
0.0
 11
100.984939
 21
65.888484
 31
0.0
  0
LINE
  8
0
  6
CONTINUOUS
 62
     7
 10
100.150106
 20
96.683137
 30
0.0
 11
100.094016
 21
73.302744
 31
0.0
  0
LINE
  8
0
  6
CONTINUOUS
 62
     7
 10
100.623539
 20
43.229484
 30
0.0
 11
100.623539
 21
35.955995
 31
0.0
  0
LINE
  8
0
  6
CONTINUOUS
 62
     4
 10
123.056339
 20
34.425884
 30
0.0
 11
100.623539
 21
34.425884
 31
0.0
  0
LINE
  8
0
  6
CONTINUOUS
 62
     6
 10
123.012139
 20
41.640675
 30
0.0
 11
100.667739
 21
41.640675
 31
0.0
  0
LINE
  8
0
  6
CONTINUOUS
 62
     7
 10
122.921139
 20
19.304284
 30
0.0
 11
100.623539
 21
19.304284
 31
0.0
  0
LINE
  8
0
  6
CONTINUOUS
 62
     6
 10
123.056339
 20
41.709821
 30
0.0
 11
123.056339
 21
29.550884
 31
0.0
  0
LINE
  8
0
  6
CONTINUOUS
 62
     6
 10
123.056339
 20
29.868084
 30
0.0
 11
100.623539
 21
29.868084
 31
0.0
  0
LINE
  8
0
  6
CONTINUOUS
 62
     7
 10
122.921139
 20
19.304284
 30
0.0
 11
122.921139
 21
29.462484
 31
0.0
  0
LINE
  8
0
  6
CONTINUOUS
 62
     7
 10
100.623539
 20
34.513104
 30
0.0
 11
100.623539
 21
28.836747
 31
0.0
  0
LINE
  8
0
  6
CONTINUOUS
 62
     7
 10
100.623539
 20
27.393855
 30
0.0
 11
100.623539
 21
19.304284
 31
0.0
  0
LINE
  8
0
  6
CONTINUOUS
 62
     4
 10
123.056339
 20
34.155484
 30
0.0
 11
100.623539
 21
34.155484
 31
0.0
  0
LINE
  8
0
  6
CONTINUOUS
 62
     7
 10
122.198339
 20
28.604484
 30
0.0
 11
99.917431
 21
28.604484
 31
0.0
  0
LINE
  8
0
  6
CONTINUOUS
 62
     7
 10
99.75208
 20
28.422484
 30
0.0
 11
123.191539
 21
28.422484
 31
0.0
  0
LINE
  8
0
  6
CONTINUOUS
 62
     7
 10
101.006589
 20
28.063684
 30
0.0
 11
117.052939
 21
28.063684
 31
0.0
  0
LINE
  8
0
  6
CONTINUOUS
 62
     7
 10
121.387139
 20
19.304284
 30
0.0
 11
121.387139
 21
28.063684
 31
0.0
  0
LINE
  8
0
  6
CONTINUOUS
 62
     7
 10
117.957739
 20
28.063684
 30
0.0
 11
122.921139
 21
28.063684
 31
0.0
  0
LINE
  8
0
  6
CONTINUOUS
 62
     2
 10
122.109939
 20
99.652084
 30
0.0
 11
119.652939
 21
99.652084
 31
0.0
  0
LINE
  8
0
  6
CONTINUOUS
 62
     2
 10
122.109939
 20
98.027084
 30
0.0
 11
119.582739
 21
98.027084
 31
0.0
  0
LINE
  8
0
  6
CONTINUOUS
 62
     2
 10
118.137139
 20
99.652084
 30
0.0
 11
113.802939
 21
99.652084
 31
0.0
  0
LINE
  8
0
  6
CONTINUOUS
 62
     2
 10
118.137139
 20
98.027084
 30
0.0
 11
113.802939
 21
98.027084
 31
0.0
  0
LINE
  8
0
  6
CONTINUOUS
 62
     2
 10
112.268939
 20
99.652084
 30
0.0
 11
108.296139
 21
99.652084
 31
0.0
  0
LINE
  8
0
  6
CONTINUOUS
 62
     2
 10
112.268939
 20
98.027084
 30
0.0
 11
108.296139
 21
98.027084
 31
0.0
  0
LINE
  8
0
  6
CONTINUOUS
 62
     2
 10
106.853139
 20
99.652084
 30
0.0
 11
102.339539
 21
99.652084
 31
0.0
  0
LINE
  8
0
  6
CONTINUOUS
 62
     2
 10
106.853139
 20
98.027084
 30
0.0
 11
102.339539
 21
98.027084
 31
0.0
  0
LINE
  8
0
  6
CONTINUOUS
 62
     2
 10
100.984939
 20
99.652084
 30
0.0
 11
99.952739
 21
99.652084
 31
0.0
  0
LINE
  8
0
  6
CONTINUOUS
 62
     2
 10
100.984939
 20
98.027084
 30
0.0
 11
99.20797
 21
98.027084
 31
0.0
  0
LINE
  8
0
  6
CONTINUOUS
 62
     2
 10
122.109939
 20
73.238684
 30
0.0
 11
119.582739
 21
73.238684
 31
0.0
  0
LINE
  8
0
  6
CONTINUOUS
 62
     2
 10
122.109939
 20
72.154484
 30
0.0
 11
119.582739
 21
72.154484
 31
0.0
  0
LINE
  8
0
  6
CONTINUOUS
 62
     2
 10
118.137139
 20
73.238684
 30
0.0
 11
113.802939
 21
73.238684
 31
0.0
  0
LINE
  8
0
  6
CONTINUOUS
 62
     2
 10
118.137139
 20
72.154484
 30
0.0
 11
113.802939
 21
72.154484
 31
0.0
  0
LINE
  8
0
  6
CONTINUOUS
 62
     2
 10
112.268939
 20
73.238684
 30
0.0
 11
108.296139
 21
73.238684
 31
0.0
  0
LINE
  8
0
  6
CONTINUOUS
 62
     2
 10
112.268939
 20
72.154484
 30
0.0
 11
108.296139
 21
72.154484
 31
0.0
  0
LINE
  8
0
  6
CONTINUOUS
 62
     2
 10
106.853139
 20
73.238684
 30
0.0
 11
102.339539
 21
73.238684
 31
0.0
  0
LINE
  8
0
  6
CONTINUOUS
 62
     2
 10
106.853139
 20
72.154484
 30
0.0
 11
102.425339
 21
72.154484
 31
0.0
  0
LINE
  8
0
  6
CONTINUOUS
 62
     2
 10
99.793577
 20
73.238684
 30
0.0
 11
100.984939
 21
73.238684
 31
0.0
  0
LINE
  8
0
  6
CONTINUOUS
 62
     6
 10
161.018939
 20
102.361284
 30
0.0
 11
175.103139
 21
102.361284
 31
0.0
  0
LINE
  8
0
  6
CONTINUOUS
 62
     6
 10
175.103139
 20
102.361284
 30
0.0
 11
175.103139
 21
65.888484
 31
0.0
  0
LINE
  8
0
  6
CONTINUOUS
 62
     6
 10
175.103139
 20
65.888484
 30
0.0
 11
161.018939
 21
65.888484
 31
0.0
  0
LINE
  8
0
  6
CONTINUOUS
 62
     4
 10
161.018939
 20
65.888484
 30
0.0
 11
161.018939
 21
102.361284
 31
0.0
  0
LINE
  8
0
  6
CONTINUOUS
 62
     2
 10
171.574939
 20
98.765484
 30
0.0
 11
171.574939
 21
98.765484
 31
0.0
  0
LINE
  8
0
  6
CONTINUOUS
 62
     2
 10
172.450732
 20
98.607767
 30
0.0
 11
172.939939
 21
98.482084
 31
0.0
  0
LINE
  8
0
  6
CONTINUOUS
 62
     2
 10
172.940031
 20
98.481526
 30
0.0
 11
173.037342
 21
98.461276
 31
0.0
  0
LINE
  8
0
  6
CONTINUOUS
 62
     2
 10
173.389739
 20
98.388484
 30
0.0
 11
173.389739
 21
98.388484
 31
0.0
  0
LINE
  8
0
  6
CONTINUOUS
 62
     2
 10
173.040322
 20
98.315773
 30
0.0
 11
172.939939
 21
98.294884
 31
0.0
  0
LINE
  8
0
  6
CONTINUOUS
 62
     2
 10
172.939939
 20
98.294884
 30
0.0
 11
172.450732
 21
98.1692
 31
0.0
  0
LINE
  8
0
  6
CONTINUOUS
 62
     2
 10
171.574939
 20
98.011484
 30
0.0
 11
171.574939
 21
98.011484
 31
0.0
  0
LINE
  8
0
  6
CONTINUOUS
 62
     2
 10
171.574939
 20
70.508684
 30
0.0
 11
171.574939
 21
70.508684
 31
0.0
  0
LINE
  8
0
  6
CONTINUOUS
 62
     2
 10
173.389739
 20
70.131684
 30
0.0
 11
173.389739
 21
70.131684
 31
0.0
  0
LINE
  8
0
  6
CONTINUOUS
 62
     2
 10
171.574939
 20
69.754684
 30
0.0
 11
171.574939
 21
69.754684
 31
0.0
  0
LINE
  8
0
  6
CONTINUOUS
 62
     6
 10
162.643939
 20
102.361284
 30
0.0
 11
162.643939
 21
110.665684
 31
0.0
  0
LINE
  8
0
  6
CONTINUOUS
 62
     6
 10
162.643939
 20
110.665684
 30
0.0
 11
160.839539
 21
110.665684
 31
0.0
  0
LINE
  8
0
  6
CONTINUOUS
 62
     6
 10
160.839539
 20
110.665684
 30
0.0
 11
160.839539
 21
58.304284
 31
0.0
  0
LINE
  8
0
  6
CONTINUOUS
 62
     6
 10
160.839539
 20
58.304284
 30
0.0
 11
162.552939
 21
58.304284
 31
0.0
  0
LINE
  8
0
  6
CONTINUOUS
 62
     6
 10
162.552939
 20
58.304284
 30
0.0
 11
162.552939
 21
65.888484
 31
0.0
  0
LINE
  8
0
  6
CONTINUOUS
 62
     7
 10
167.880339
 20
118.611284
 30
0.0
 11
172.214539
 21
118.611284
 31
0.0
  0
LINE
  8
0
  6
CONTINUOUS
 62
     7
 10
172.214539
 20
118.611284
 30
0.0
 11
172.214539
 21
114.277084
 31
0.0
  0
LINE
  8
0
  6
CONTINUOUS
 62
     7
 10
172.214539
 20
114.277084
 30
0.0
 11
167.880339
 21
114.277084
 31
0.0
  0
LINE
  8
0
  6
CONTINUOUS
 62
     7
 10
167.880339
 20
114.277084
 30
0.0
 11
167.880339
 21
118.611284
 31
0.0
  0
LINE
  8
0
  6
CONTINUOUS
 62
     6
 10
94.349739
 20
58.169084
 30
0.0
 11
64.738339
 21
58.169084
 31
0.0
  0
LINE
  8
0
  6
CONTINUOUS
 62
     6
 10
64.738339
 20
58.169084
 30
0.0
 11
64.738339
 21
110.169084
 31
0.0
  0
LINE
  8
0
  6
CONTINUOUS
 62
     7
 10
64.738339
 20
110.169084
 30
0.0
 11
64.738339
 21
110.169084
 31
0.0
  0
LINE
  8
0
  6
CONTINUOUS
 62
     6
 10
64.738339
 20
110.169084
 30
0.0
 11
94.349739
 21
110.169084
 31
0.0
  0
LINE
  8
0
  6
CONTINUOUS
 62
     6
 10
99.856539
 20
58.169084
 30
0.0
 11
130.099739
 21
58.169084
 31
0.0
  0
LINE
  8
0
  6
CONTINUOUS
 62
     7
 10
130.099739
 20
58.169084
 30
0.0
 11
130.099739
 21
58.169084
 31
0.0
  0
LINE
  8
0
  6
CONTINUOUS
 62
     7
 10
130.099739
 20
84.169084
 30
0.0
 11
130.099739
 21
84.169084
 31
0.0
  0
LINE
  8
0
  6
CONTINUOUS
 62
     7
 10
130.099739
 20
110.169084
 30
0.0
 11
130.099739
 21
110.169084
 31
0.0
  0
LINE
  8
0
  6
CONTINUOUS
 62
     7
 10
130.099739
 20
110.169084
 30
0.0
 11
129.184539
 21
110.169084
 31
0.0
  0
LINE
  8
0
  6
CONTINUOUS
 62
     6
 10
130.099739
 20
110.169084
 30
0.0
 11
99.941605
 21
110.169084
 31
0.0
  0
LINE
  8
0
  6
CONTINUOUS
 62
     7
 10
219.100891
 20
110.625433
 30
0.0
 11
264.607585
 21
110.625433
 31
0.0
  0
LINE
  8
0
  6
CONTINUOUS
 62
     7
 10
264.607585
 20
110.625433
 30
0.0
 11
264.607585
 21
70.543833
 31
0.0
  0
LINE
  8
0
  6
CONTINUOUS
 62
     7
 10
264.607585
 20
70.543833
 30
0.0
 11
219.100891
 21
70.543833
 31
0.0
  0
LINE
  8
0
  6
CONTINUOUS
 62
     7
 10
219.100891
 20
70.543833
 30
0.0
 11
219.100891
 21
110.625433
 31
0.0
  0
LINE
  8
0
  6
CONTINUOUS
 62
     7
 10
95.342939
 20
43.229484
 30
0.0
 11
95.342939
 21
36.412284
 31
0.0
  0
LINE
  8
0
  6
CONTINUOUS
 62
     4
 10
72.907539
 20
40.564484
 30
0.0
 11
95.342939
 21
40.564484
 31
0.0
  0
LINE
  8
0
  6
CONTINUOUS
 62
     4
 10
72.907539
 20
39.844284
 30
0.0
 11
95.342939
 21
39.844284
 31
0.0
  0
LINE
  8
0
  6
CONTINUOUS
 62
     4
 10
72.907539
 20
36.232884
 30
0.0
 11
95.342939
 21
36.232884
 31
0.0
  0
LINE
  8
0
  6
CONTINUOUS
 62
     6
 10
72.907539
 20
41.656953
 30
0.0
 11
95.377527
 21
41.656953
 31
0.0
  0
LINE
  8
0
  6
CONTINUOUS
 62
     7
 10
73.042739
 20
19.304284
 30
0.0
 11
95.342939
 21
19.304284
 31
0.0
  0
LINE
  8
0
  6
CONTINUOUS
 62
     6
 10
72.907539
 20
40.249884
 30
0.0
 11
72.907539
 21
29.550884
 31
0.0
  0
LINE
  8
0
  6
CONTINUOUS
 62
     6
 10
72.907539
 20
29.630979
 30
0.0
 11
94.964494
 21
29.630979
 31
0.0
  0
LINE
  8
0
  6
CONTINUOUS
 62
     7
 10
73.042739
 20
19.304284
 30
0.0
 11
73.042739
 21
29.462484
 31
0.0
  0
LINE
  8
0
  6
CONTINUOUS
 62
     7
 10
95.342939
 20
34.516884
 30
0.0
 11
95.342939
 21
30.194231
 31
0.0
  0
LINE
  8
0
  6
CONTINUOUS
 62
     7
 10
95.342939
 20
28.748397
 30
0.0
 11
95.342939
 21
19.304284
 31
0.0
  0
LINE
  8
0
  6
CONTINUOUS
 62
     6
 10
65.323339
 20
41.695484
 30
0.0
 11
72.907539
 21
41.695484
 31
0.0
  0
LINE
  8
0
  6
CONTINUOUS
 62
     6
 10
72.907539
 20
41.695484
 30
0.0
 11
72.907539
 21
40.249884
 31
0.0
  0
LINE
  8
0
  6
CONTINUOUS
 62
     6
 10
72.907539
 20
40.249884
 30
0.0
 11
65.323339
 21
40.249884
 31
0.0
  0
LINE
  8
0
  6
CONTINUOUS
 62
     6
 10
65.323339
 20
40.249884
 30
0.0
 11
65.323339
 21
41.695484
 31
0.0
  0
LINE
  8
0
  6
CONTINUOUS
 62
     7
 10
75.814339
 20
32.474205
 30
0.0
 11
75.814339
 21
32.474205
 31
0.0
  0
LINE
  8
0
  6
CONTINUOUS
 62
     7
 10
75.437339
 20
30.659405
 30
0.0
 11
75.437339
 21
30.659405
 31
0.0
  0
LINE
  8
0
  6
CONTINUOUS
 62
     7
 10
75.060339
 20
32.474205
 30
0.0
 11
75.060339
 21
32.474205
 31
0.0
  0
LINE
  8
0
  6
CONTINUOUS
 62
     7
 10
95.342939
 20
31.448884
 30
0.0
 11
95.342939
 21
31.269484
 31
0.0
  0
LINE
  8
0
  6
CONTINUOUS
 62
     7
 10
95.342939
 20
31.269484
 30
0.0
 11
95.342939
 21
30.726084
 31
0.0
  0
LINE
  8
0
  6
CONTINUOUS
 62
     7
 10
95.342939
 20
30.726084
 30
0.0
 11
95.342939
 21
30.726084
 31
0.0
  0
LINE
  8
0
  6
CONTINUOUS
 62
     7
 10
95.342939
 20
30.726084
 30
0.0
 11
95.342939
 21
30.182684
 31
0.0
  0
LINE
  8
0
  6
CONTINUOUS
 62
     7
 10
95.342939
 20
28.425084
 30
0.0
 11
95.342939
 21
28.016884
 31
0.0
  0
LINE
  8
0
  6
CONTINUOUS
 62
     7
 10
95.342939
 20
28.016884
 30
0.0
 11
95.342939
 21
28.016884
 31
0.0
  0
LINE
  8
0
  6
CONTINUOUS
 62
     7
 10
95.342939
 20
28.016884
 30
0.0
 11
95.342939
 21
27.611284
 31
0.0
  0
LINE
  8
0
  6
CONTINUOUS
 62
     7
 10
95.342939
 20
27.611284
 30
0.0
 11
95.342939
 21
27.476084
 31
0.0
  0
LINE
  8
0
  6
CONTINUOUS
 62
     7
 10
95.342939
 20
37.044084
 30
0.0
 11
95.342939
 21
36.911484
 31
0.0
  0
LINE
  8
0
  6
CONTINUOUS
 62
     7
 10
95.342939
 20
36.911484
 30
0.0
 11
95.342939
 21
36.503284
 31
0.0
  0
LINE
  8
0
  6
CONTINUOUS
 62
     7
 10
95.342939
 20
36.503284
 30
0.0
 11
95.342939
 21
36.503284
 31
0.0
  0
LINE
  8
0
  6
CONTINUOUS
 62
     7
 10
95.342939
 20
36.503284
 30
0.0
 11
95.342939
 21
36.095084
 31
0.0
  0
LINE
  8
0
  6
CONTINUOUS
 62
     7
 10
95.342939
 20
36.095084
 30
0.0
 11
95.342939
 21
35.962484
 31
0.0
  0
LINE
  8
0
  6
CONTINUOUS
 62
     7
 10
95.342939
 20
35.962484
 30
0.0
 11
95.342939
 21
35.962484
 31
0.0
  0
LINE
  8
0
  6
CONTINUOUS
 62
     7
 10
94.799539
 20
35.780484
 30
0.0
 11
94.799539
 21
35.780484
 31
0.0
  0
LINE
  8
0
  6
CONTINUOUS
 62
     7
 10
94.258739
 20
35.601084
 30
0.0
 11
94.258739
 21
35.601084
 31
0.0
  0
LINE
  8
0
  6
CONTINUOUS
 62
     7
 10
95.522339
 20
35.239684
 30
0.0
 11
95.522339
 21
35.239684
 31
0.0
  0
LINE
  8
0
  6
CONTINUOUS
 62
     7
 10
96.785939
 20
34.878284
 30
0.0
 11
96.785939
 21
34.878284
 31
0.0
  0
LINE
  8
0
  6
CONTINUOUS
 62
     7
 10
95.342939
 20
34.384284
 30
0.0
 11
95.342939
 21
33.976084
 31
0.0
  0
LINE
  8
0
  6
CONTINUOUS
 62
     7
 10
95.342939
 20
33.976084
 30
0.0
 11
95.342939
 21
33.976084
 31
0.0
  0
LINE
  8
0
  6
CONTINUOUS
 62
     7
 10
95.342939
 20
33.976084
 30
0.0
 11
95.342939
 21
33.567884
 31
0.0
  0
LINE
  8
0
  6
CONTINUOUS
 62
     7
 10
95.342939
 20
33.567884
 30
0.0
 11
95.342939
 21
33.435284
 31
0.0
  0
LINE
  8
0
  6
CONTINUOUS
 62
     7
 10
95.342939
 20
27.925884
 30
0.0
 11
94.516139
 21
27.925884
 31
0.0
  0
LINE
  8
0
  6
CONTINUOUS
 62
     7
 10
94.516139
 20
27.925884
 30
0.0
 11
92.836539
 21
27.925884
 31
0.0
  0
LINE
  8
0
  6
CONTINUOUS
 62
     7
 10
92.836539
 20
27.925884
 30
0.0
 11
90.025939
 21
27.925884
 31
0.0
  0
LINE
  8
0
  6
CONTINUOUS
 62
     7
 10
90.025939
 20
27.925884
 30
0.0
 11
86.066139
 21
27.925884
 31
0.0
  0
LINE
  8
0
  6
CONTINUOUS
 62
     7
 10
86.066139
 20
27.925884
 30
0.0
 11
86.066139
 21
27.925884
 31
0.0
  0
LINE
  8
0
  6
CONTINUOUS
 62
     7
 10
86.066139
 20
27.925884
 30
0.0
 11
82.106339
 21
27.925884
 31
0.0
  0
LINE
  8
0
  6
CONTINUOUS
 62
     7
 10
82.106339
 20
27.925884
 30
0.0
 11
79.295739
 21
27.925884
 31
0.0
  0
LINE
  8
0
  6
CONTINUOUS
 62
     7
 10
79.295739
 20
27.925884
 30
0.0
 11
77.616139
 21
27.925884
 31
0.0
  0
LINE
  8
0
  6
CONTINUOUS
 62
     7
 10
77.616139
 20
27.925884
 30
0.0
 11
77.059739
 21
27.925884
 31
0.0
  0
LINE
  8
0
  6
CONTINUOUS
 62
     7
 10
77.059739
 20
27.925884
 30
0.0
 11
77.059739
 21
27.925884
 31
0.0
  0
LINE
  8
0
  6
CONTINUOUS
 62
     7
 10
77.059739
 20
27.925884
 30
0.0
 11
77.059739
 21
26.857284
 31
0.0
  0
LINE
  8
0
  6
CONTINUOUS
 62
     7
 10
77.059739
 20
26.857284
 30
0.0
 11
77.059739
 21
23.615084
 31
0.0
  0
LINE
  8
0
  6
CONTINUOUS
 62
     7
 10
77.059739
 20
23.615084
 30
0.0
 11
77.059739
 21
23.615084
 31
0.0
  0
LINE
  8
0
  6
CONTINUOUS
 62
     7
 10
77.059739
 20
23.615084
 30
0.0
 11
77.059739
 21
20.375484
 31
0.0
  0
LINE
  8
0
  6
CONTINUOUS
 62
     7
 10
77.059739
 20
20.375484
 30
0.0
 11
77.059739
 21
19.304284
 31
0.0
  0
LINE
  8
0
  6
CONTINUOUS
 62
     7
 10
72.772339
 20
30.814484
 30
0.0
 11
72.683939
 21
30.814484
 31
0.0
  0
LINE
  8
0
  6
CONTINUOUS
 62
     7
 10
72.683939
 20
30.814484
 30
0.0
 11
72.410939
 21
30.814484
 31
0.0
  0
LINE
  8
0
  6
CONTINUOUS
 62
     7
 10
72.410939
 20
30.814484
 30
0.0
 11
72.410939
 21
30.814484
 31
0.0
  0
LINE
  8
0
  6
CONTINUOUS
 62
     7
 10
72.410939
 20
30.814484
 30
0.0
 11
72.140539
 21
30.814484
 31
0.0
  0
LINE
  8
0
  6
CONTINUOUS
 62
     7
 10
72.140539
 20
30.814484
 30
0.0
 11
72.049539
 21
30.814484
 31
0.0
  0
LINE
  8
0
  6
CONTINUOUS
 62
     7
 10
72.049539
 20
30.814484
 30
0.0
 11
72.049539
 21
30.814484
 31
0.0
  0
LINE
  8
0
  6
CONTINUOUS
 62
     7
 10
72.049539
 20
30.814484
 30
0.0
 11
72.049539
 21
30.637684
 31
0.0
  0
LINE
  8
0
  6
CONTINUOUS
 62
     7
 10
72.049539
 20
30.637684
 30
0.0
 11
72.049539
 21
30.094284
 31
0.0
  0
LINE
  8
0
  6
CONTINUOUS
 62
     7
 10
72.049539
 20
30.094284
 30
0.0
 11
72.049539
 21
30.094284
 31
0.0
  0
LINE
  8
0
  6
CONTINUOUS
 62
     7
 10
72.049539
 20
30.094284
 30
0.0
 11
72.049539
 21
29.550884
 31
0.0
  0
LINE
  8
0
  6
CONTINUOUS
 62
     7
 10
72.049539
 20
29.550884
 30
0.0
 11
72.049539
 21
29.371484
 31
0.0
  0
LINE
  8
0
  6
CONTINUOUS
 62
     6
 10
123.417739
 20
41.695484
 30
0.0
 11
131.001939
 21
41.695484
 31
0.0
  0
LINE
  8
0
  6
CONTINUOUS
 62
     6
 10
131.001939
 20
41.695484
 30
0.0
 11
131.001939
 21
40.249884
 31
0.0
  0
LINE
  8
0
  6
CONTINUOUS
 62
     6
 10
131.001939
 20
40.249884
 30
0.0
 11
123.417739
 21
40.249884
 31
0.0
  0
LINE
  8
0
  6
CONTINUOUS
 62
     6
 10
123.417739
 20
40.249884
 30
0.0
 11
123.417739
 21
41.695484
 31
0.0
  0
LINE
  8
0
  6
CONTINUOUS
 62
     7
 10
117.234939
 20
28.063684
 30
0.0
 11
118.137139
 21
28.063684
 31
0.0
  0
LINE
  8
0
  6
CONTINUOUS
 62
     7
 10
118.137139
 20
28.063684
 30
0.0
 11
118.137139
 21
26.438684
 31
0.0
  0
LINE
  8
0
  6
CONTINUOUS
 62
     7
 10
118.137139
 20
26.438684
 30
0.0
 11
117.234939
 21
26.438684
 31
0.0
  0
LINE
  8
0
  6
CONTINUOUS
 62
     7
 10
117.234939
 20
26.438684
 30
0.0
 11
117.234939
 21
28.063684
 31
0.0
  0
LINE
  8
0
  6
CONTINUOUS
 62
     7
 10
123.552939
 20
30.814484
 30
0.0
 11
123.643939
 21
30.814484
 31
0.0
  0
LINE
  8
0
  6
CONTINUOUS
 62
     7
 10
123.643939
 20
30.814484
 30
0.0
 11
123.914339
 21
30.814484
 31
0.0
  0
LINE
  8
0
  6
CONTINUOUS
 62
     7
 10
123.914339
 20
30.814484
 30
0.0
 11
123.914339
 21
30.814484
 31
0.0
  0
LINE
  8
0
  6
CONTINUOUS
 62
     7
 10
123.914339
 20
30.814484
 30
0.0
 11
124.187339
 21
30.814484
 31
0.0
  0
LINE
  8
0
  6
CONTINUOUS
 62
     7
 10
124.187339
 20
30.814484
 30
0.0
 11
124.275739
 21
30.814484
 31
0.0
  0
LINE
  8
0
  6
CONTINUOUS
 62
     7
 10
124.275739
 20
30.814484
 30
0.0
 11
124.275739
 21
30.814484
 31
0.0
  0
LINE
  8
0
  6
CONTINUOUS
 62
     7
 10
124.275739
 20
30.814484
 30
0.0
 11
124.275739
 21
30.637684
 31
0.0
  0
LINE
  8
0
  6
CONTINUOUS
 62
     7
 10
124.275739
 20
30.637684
 30
0.0
 11
124.275739
 21
30.094284
 31
0.0
  0
LINE
  8
0
  6
CONTINUOUS
 62
     7
 10
124.275739
 20
30.094284
 30
0.0
 11
124.275739
 21
30.094284
 31
0.0
  0
LINE
  8
0
  6
CONTINUOUS
 62
     7
 10
124.275739
 20
30.094284
 30
0.0
 11
124.275739
 21
29.550884
 31
0.0
  0
LINE
  8
0
  6
CONTINUOUS
 62
     7
 10
124.275739
 20
29.550884
 30
0.0
 11
124.275739
 21
29.371484
 31
0.0
  0
LINE
  8
0
  6
CONTINUOUS
 62
     7
 10
100.984939
 20
36.503284
 30
0.0
 11
100.984939
 21
36.503284
 31
0.0
  0
LINE
  8
0
  6
CONTINUOUS
 62
     7
 10
100.984939
 20
35.962484
 30
0.0
 11
100.984939
 21
35.962484
 31
0.0
  0
LINE
  8
0
  6
CONTINUOUS
 62
     7
 10
100.441539
 20
35.780484
 30
0.0
 11
100.441539
 21
35.780484
 31
0.0
  0
LINE
  8
0
  6
CONTINUOUS
 62
     7
 10
99.900739
 20
35.601084
 30
0.0
 11
99.900739
 21
35.601084
 31
0.0
  0
LINE
  8
0
  6
CONTINUOUS
 62
     7
 10
101.164339
 20
35.239684
 30
0.0
 11
101.164339
 21
35.239684
 31
0.0
  0
LINE
  8
0
  6
CONTINUOUS
 62
     7
 10
102.427939
 20
34.878284
 30
0.0
 11
102.427939
 21
34.878284
 31
0.0
  0
LINE
  8
0
  6
CONTINUOUS
 62
     7
 10
101.707739
 20
34.698884
 30
0.0
 11
101.707739
 21
34.698884
 31
0.0
  0
LINE
  8
0
  6
CONTINUOUS
 62
     7
 10
100.984939
 20
34.516884
 30
0.0
 11
100.984939
 21
34.516884
 31
0.0
  0
LINE
  8
0
  6
CONTINUOUS
 62
     7
 10
100.984939
 20
33.976084
 30
0.0
 11
100.984939
 21
33.976084
 31
0.0
  0
LINE
  8
0
  6
CONTINUOUS
 62
     7
 10
41.334461
 20
36.94705
 30
0.0
 11
45.668661
 21
36.94705
 31
0.0
  0
LINE
  8
0
  6
CONTINUOUS
 62
     7
 10
45.668661
 20
36.94705
 30
0.0
 11
45.668661
 21
32.61285
 31
0.0
  0
LINE
  8
0
  6
CONTINUOUS
 62
     7
 10
45.668661
 20
32.61285
 30
0.0
 11
41.334461
 21
32.61285
 31
0.0
  0
LINE
  8
0
  6
CONTINUOUS
 62
     7
 10
41.334461
 20
32.61285
 30
0.0
 11
41.334461
 21
36.94705
 31
0.0
  0
LINE
  8
0
  6
CONTINUOUS
 62
     7
 10
73.042739
 20
27.881684
 30
0.0
 11
73.133739
 21
27.972684
 31
0.0
  0
LINE
  8
0
  6
CONTINUOUS
 62
     7
 10
73.133739
 20
27.972684
 30
0.0
 11
73.404139
 21
28.243084
 31
0.0
  0
LINE
  8
0
  6
CONTINUOUS
 62
     7
 10
73.404139
 20
28.243084
 30
0.0
 11
73.404139
 21
28.243084
 31
0.0
  0
LINE
  8
0
  6
CONTINUOUS
 62
     7
 10
73.404139
 20
28.243084
 30
0.0
 11
73.677139
 21
28.513484
 31
0.0
  0
LINE
  8
0
  6
CONTINUOUS
 62
     7
 10
73.677139
 20
28.513484
 30
0.0
 11
73.765539
 21
28.604484
 31
0.0
  0
LINE
  8
0
  6
CONTINUOUS
 62
     7
 10
73.765539
 20
28.604484
 30
0.0
 11
73.765539
 21
28.604484
 31
0.0
  0
LINE
  8
0
  6
CONTINUOUS
 62
     7
 10
73.765539
 20
28.604484
 30
0.0
 11
73.765539
 21
28.692884
 31
0.0
  0
LINE
  8
0
  6
CONTINUOUS
 62
     7
 10
73.765539
 20
28.692884
 30
0.0
 11
73.765539
 21
28.965884
 31
0.0
  0
LINE
  8
0
  6
CONTINUOUS
 62
     7
 10
73.765539
 20
28.965884
 30
0.0
 11
73.765539
 21
28.965884
 31
0.0
  0
LINE
  8
0
  6
CONTINUOUS
 62
     7
 10
73.765539
 20
28.965884
 30
0.0
 11
73.765539
 21
29.236284
 31
0.0
  0
LINE
  8
0
  6
CONTINUOUS
 62
     7
 10
73.765539
 20
29.236284
 30
0.0
 11
73.765539
 21
29.327284
 31
0.0
  0
LINE
  8
0
  6
CONTINUOUS
 62
     7
 10
73.042739
 20
27.790684
 30
0.0
 11
72.954339
 21
27.925884
 31
0.0
  0
LINE
  8
0
  6
CONTINUOUS
 62
     7
 10
72.954339
 20
27.925884
 30
0.0
 11
72.681339
 21
28.334084
 31
0.0
  0
LINE
  8
0
  6
CONTINUOUS
 62
     7
 10
72.681339
 20
28.334084
 30
0.0
 11
72.681339
 21
28.334084
 31
0.0
  0
LINE
  8
0
  6
CONTINUOUS
 62
     7
 10
72.681339
 20
28.334084
 30
0.0
 11
72.410939
 21
28.739684
 31
0.0
  0
LINE
  8
0
  6
CONTINUOUS
 62
     7
 10
72.410939
 20
28.739684
 30
0.0
 11
72.319939
 21
28.874884
 31
0.0
  0
LINE
  8
0
  6
CONTINUOUS
 62
     7
 10
72.319939
 20
28.874884
 30
0.0
 11
72.319939
 21
28.874884
 31
0.0
  0
LINE
  8
0
  6
CONTINUOUS
 62
     7
 10
72.319939
 20
28.874884
 30
0.0
 11
72.319939
 21
29.010084
 31
0.0
  0
LINE
  8
0
  6
CONTINUOUS
 62
     7
 10
72.319939
 20
29.010084
 30
0.0
 11
72.319939
 21
29.415684
 31
0.0
  0
LINE
  8
0
  6
CONTINUOUS
 62
     7
 10
72.319939
 20
29.415684
 30
0.0
 11
72.319939
 21
29.415684
 31
0.0
  0
LINE
  8
0
  6
CONTINUOUS
 62
     7
 10
72.319939
 20
29.415684
 30
0.0
 11
72.319939
 21
29.823884
 31
0.0
  0
LINE
  8
0
  6
CONTINUOUS
 62
     7
 10
72.319939
 20
29.823884
 30
0.0
 11
72.319939
 21
29.959084
 31
0.0
  0
LINE
  8
0
  6
CONTINUOUS
 62
     7
 10
72.319939
 20
29.959084
 30
0.0
 11
72.319939
 21
29.959084
 31
0.0
  0
LINE
  8
0
  6
CONTINUOUS
 62
     7
 10
72.319939
 20
29.959084
 30
0.0
 11
72.366739
 21
29.959084
 31
0.0
  0
LINE
  8
0
  6
CONTINUOUS
 62
     7
 10
72.366739
 20
29.959084
 30
0.0
 11
72.501939
 21
29.959084
 31
0.0
  0
LINE
  8
0
  6
CONTINUOUS
 62
     7
 10
72.501939
 20
29.959084
 30
0.0
 11
72.501939
 21
29.959084
 31
0.0
  0
LINE
  8
0
  6
CONTINUOUS
 62
     7
 10
72.501939
 20
29.959084
 30
0.0
 11
72.637139
 21
29.959084
 31
0.0
  0
LINE
  8
0
  6
CONTINUOUS
 62
     7
 10
72.637139
 20
29.959084
 30
0.0
 11
72.681339
 21
29.959084
 31
0.0
  0
LINE
  8
0
  6
CONTINUOUS
 62
     6
 10
28.491739
 20
102.361284
 30
0.0
 11
40.407539
 21
102.361284
 31
0.0
  0
LINE
  8
0
  6
CONTINUOUS
 62
     6
 10
40.407539
 20
65.888484
 30
0.0
 11
28.491739
 21
65.888484
 31
0.0
  0
LINE
  8
0
  6
CONTINUOUS
 62
     6
 10
28.491739
 20
65.888484
 30
0.0
 11
28.491739
 21
102.361284
 31
0.0
  0
LINE
  8
0
  6
CONTINUOUS
 62
     6
 10
39.052939
 20
102.270284
 30
0.0
 11
39.052939
 21
110.304284
 31
0.0
  0
LINE
  8
0
  6
CONTINUOUS
 62
     6
 10
39.052939
 20
110.304284
 30
0.0
 11
40.498539
 21
110.304284
 31
0.0
  0
LINE
  8
0
  6
CONTINUOUS
 62
     6
 10
40.498539
 20
110.304284
 30
0.0
 11
40.498539
 21
57.945484
 31
0.0
  0
LINE
  8
0
  6
CONTINUOUS
 62
     6
 10
40.498539
 20
57.945484
 30
0.0
 11
39.143939
 21
57.945484
 31
0.0
  0
LINE
  8
0
  6
CONTINUOUS
 62
     6
 10
39.143939
 20
57.945484
 30
0.0
 11
39.143939
 21
65.888484
 31
0.0
  0
LINE
  8
LAYER1
  6
CONTINUOUS
 62
     4
 10
72.546139
 20
81.652284
 30
0.0
 11
94.032539
 21
81.652284
 31
0.0
  0
LINE
  8
LAYER1
  6
CONTINUOUS
 62
     4
 10
72.546139
 20
80.747484
 30
0.0
 11
94.032539
 21
80.747484
 31
0.0
  0
LINE
  8
0
  6
CONTINUOUS
 62
     7
 10
115.654139
 20
28.107884
 30
0.0
 11
119.762139
 21
28.107884
 31
0.0
  0
LINE
  8
0
  6
CONTINUOUS
 62
     7
 10
119.762139
 20
28.107884
 30
0.0
 11
119.762139
 21
27.655484
 31
0.0
  0
LINE
  8
0
  6
CONTINUOUS
 62
     7
 10
119.762139
 20
27.655484
 30
0.0
 11
115.654139
 21
27.655484
 31
0.0
  0
LINE
  8
0
  6
CONTINUOUS
 62
     7
 10
115.654139
 20
27.655484
 30
0.0
 11
115.654139
 21
28.107884
 31
0.0
  0
LINE
  8
0
  6
CONTINUOUS
 62
     7
 10
123.282539
 20
27.881684
 30
0.0
 11
123.194139
 21
27.972684
 31
0.0
  0
LINE
  8
0
  6
CONTINUOUS
 62
     7
 10
123.194139
 20
27.972684
 30
0.0
 11
122.921139
 21
28.243084
 31
0.0
  0
LINE
  8
0
  6
CONTINUOUS
 62
     7
 10
122.921139
 20
28.243084
 30
0.0
 11
122.921139
 21
28.243084
 31
0.0
  0
LINE
  8
0
  6
CONTINUOUS
 62
     7
 10
122.921139
 20
28.243084
 30
0.0
 11
122.650739
 21
28.513484
 31
0.0
  0
LINE
  8
0
  6
CONTINUOUS
 62
     7
 10
122.650739
 20
28.513484
 30
0.0
 11
122.559739
 21
28.604484
 31
0.0
  0
LINE
  8
0
  6
CONTINUOUS
 62
     7
 10
122.559739
 20
28.604484
 30
0.0
 11
122.559739
 21
28.604484
 31
0.0
  0
LINE
  8
0
  6
CONTINUOUS
 62
     7
 10
122.559739
 20
28.604484
 30
0.0
 11
122.559739
 21
28.692884
 31
0.0
  0
LINE
  8
0
  6
CONTINUOUS
 62
     7
 10
122.559739
 20
28.692884
 30
0.0
 11
122.559739
 21
28.965884
 31
0.0
  0
LINE
  8
0
  6
CONTINUOUS
 62
     7
 10
122.559739
 20
28.965884
 30
0.0
 11
122.559739
 21
28.965884
 31
0.0
  0
LINE
  8
0
  6
CONTINUOUS
 62
     7
 10
122.559739
 20
28.965884
 30
0.0
 11
122.559739
 21
29.236284
 31
0.0
  0
LINE
  8
0
  6
CONTINUOUS
 62
     7
 10
122.559739
 20
29.236284
 30
0.0
 11
122.559739
 21
29.327284
 31
0.0
  0
LINE
  8
0
  6
CONTINUOUS
 62
     7
 10
123.282539
 20
27.790684
 30
0.0
 11
123.373539
 21
27.925884
 31
0.0
  0
LINE
  8
0
  6
CONTINUOUS
 62
     7
 10
123.373539
 20
27.925884
 30
0.0
 11
123.643939
 21
28.334084
 31
0.0
  0
LINE
  8
0
  6
CONTINUOUS
 62
     7
 10
123.643939
 20
28.334084
 30
0.0
 11
123.643939
 21
28.334084
 31
0.0
  0
LINE
  8
0
  6
CONTINUOUS
 62
     7
 10
123.643939
 20
28.334084
 30
0.0
 11
123.914339
 21
28.739684
 31
0.0
  0
LINE
  8
0
  6
CONTINUOUS
 62
     7
 10
123.914339
 20
28.739684
 30
0.0
 11
124.005339
 21
28.874884
 31
0.0
  0
LINE
  8
0
  6
CONTINUOUS
 62
     7
 10
124.005339
 20
28.874884
 30
0.0
 11
124.005339
 21
28.874884
 31
0.0
  0
LINE
  8
0
  6
CONTINUOUS
 62
     7
 10
124.005339
 20
28.874884
 30
0.0
 11
124.005339
 21
29.010084
 31
0.0
  0
LINE
  8
0
  6
CONTINUOUS
 62
     7
 10
124.005339
 20
29.010084
 30
0.0
 11
124.005339
 21
29.415684
 31
0.0
  0
LINE
  8
0
  6
CONTINUOUS
 62
     7
 10
124.005339
 20
29.415684
 30
0.0
 11
124.005339
 21
29.415684
 31
0.0
  0
LINE
  8
0
  6
CONTINUOUS
 62
     7
 10
124.005339
 20
29.415684
 30
0.0
 11
124.005339
 21
29.823884
 31
0.0
  0
LINE
  8
0
  6
CONTINUOUS
 62
     7
 10
124.005339
 20
29.823884
 30
0.0
 11
124.005339
 21
29.959084
 31
0.0
  0
LINE
  8
0
  6
CONTINUOUS
 62
     7
 10
124.005339
 20
29.959084
 30
0.0
 11
124.005339
 21
29.959084
 31
0.0
  0
LINE
  8
0
  6
CONTINUOUS
 62
     7
 10
124.005339
 20
29.959084
 30
0.0
 11
123.961139
 21
29.959084
 31
0.0
  0
LINE
  8
0
  6
CONTINUOUS
 62
     7
 10
123.961139
 20
29.959084
 30
0.0
 11
123.823339
 21
29.959084
 31
0.0
  0
LINE
  8
0
  6
CONTINUOUS
 62
     7
 10
123.823339
 20
29.959084
 30
0.0
 11
123.823339
 21
29.959084
 31
0.0
  0
LINE
  8
0
  6
CONTINUOUS
 62
     7
 10
123.823339
 20
29.959084
 30
0.0
 11
123.688139
 21
29.959084
 31
0.0
  0
LINE
  8
0
  6
CONTINUOUS
 62
     7
 10
123.688139
 20
29.959084
 30
0.0
 11
123.643939
 21
29.959084
 31
0.0
  0
LINE
  8
0
  6
CONTINUOUS
 62
     5
 39
0.52
 10
239.232691
 20
92.253833
 30
0.0
 11
239.053291
 21
92.253833
 31
0.0
  0
LINE
  8
0
  6
CONTINUOUS
 62
     5
 39
0.52
 10
239.053291
 20
92.253833
 30
0.0
 11
238.509891
 21
92.253833
 31
0.0
  0
LINE
  8
0
  6
CONTINUOUS
 62
     5
 39
0.52
 10
238.509891
 20
92.253833
 30
0.0
 11
238.509891
 21
92.253833
 31
0.0
  0
LINE
  8
0
  6
CONTINUOUS
 62
     5
 39
0.52
 10
238.509891
 20
92.253833
 30
0.0
 11
237.966491
 21
92.253833
 31
0.0
  0
LINE
  8
0
  6
CONTINUOUS
 62
     5
 39
0.52
 10
237.966491
 20
92.253833
 30
0.0
 11
237.789691
 21
92.253833
 31
0.0
  0
LINE
  8
0
  6
CONTINUOUS
 62
     5
 39
0.52
 10
237.789691
 20
92.253833
 30
0.0
 11
237.789691
 21
92.253833
 31
0.0
  0
LINE
  8
0
  6
CONTINUOUS
 62
     5
 39
0.52
 10
237.789691
 20
92.253833
 30
0.0
 11
237.833891
 21
92.074433
 31
0.0
  0
LINE
  8
0
  6
CONTINUOUS
 62
     5
 39
0.52
 10
237.969091
 20
91.533633
 30
0.0
 11
237.969091
 21
91.533633
 31
0.0
  0
LINE
  8
0
  6
CONTINUOUS
 62
     5
 39
0.52
 10
238.151091
 20
90.810833
 30
0.0
 11
238.151091
 21
90.810833
 31
0.0
  0
LINE
  8
0
  6
CONTINUOUS
 62
     5
 39
0.52
 10
239.188491
 20
92.253833
 30
0.0
 11
239.367891
 21
92.253833
 31
0.0
  0
LINE
  8
0
  6
CONTINUOUS
 62
     5
 39
0.52
 10
239.367891
 20
92.253833
 30
0.0
 11
239.911291
 21
92.253833
 31
0.0
  0
LINE
  8
0
  6
CONTINUOUS
 62
     5
 39
0.52
 10
239.911291
 20
92.253833
 30
0.0
 11
239.911291
 21
92.253833
 31
0.0
  0
LINE
  8
0
  6
CONTINUOUS
 62
     5
 39
0.52
 10
239.911291
 20
92.253833
 30
0.0
 11
240.452091
 21
92.253833
 31
0.0
  0
LINE
  8
0
  6
CONTINUOUS
 62
     5
 39
0.52
 10
240.452091
 20
92.253833
 30
0.0
 11
240.631491
 21
92.253833
 31
0.0
  0
LINE
  8
0
  6
CONTINUOUS
 62
     5
 39
0.52
 10
240.631491
 20
92.253833
 30
0.0
 11
240.631491
 21
92.253833
 31
0.0
  0
LINE
  8
0
  6
CONTINUOUS
 62
     5
 39
0.52
 10
240.631491
 20
92.253833
 30
0.0
 11
240.587291
 21
92.074433
 31
0.0
  0
LINE
  8
0
  6
CONTINUOUS
 62
     5
 39
0.52
 10
240.452091
 20
91.533633
 30
0.0
 11
240.452091
 21
91.533633
 31
0.0
  0
LINE
  8
0
  6
CONTINUOUS
 62
     5
 39
0.52
 10
240.272691
 20
90.810833
 30
0.0
 11
240.272691
 21
90.810833
 31
0.0
  0
CIRCLE
  8
0
  6
CONTINUOUS
 62
     2
 10
169.671739
 20
98.388484
 30
0.0
 40
0.710515
  0
LINE
  8
0
  6
CONTINUOUS
 62
     2
 10
170.382254
 20
98.388484
 30
0.0
 11
173.880614
 21
98.388484
 31
0.0
  0
LINE
  8
0
  6
CONTINUOUS
 62
     2
 10
170.332973
 20
98.648484
 30
0.0
 11
172.054329
 21
98.648484
 31
0.0
  0
LINE
  8
0
  6
CONTINUOUS
 62
     2
 10
170.332973
 20
98.128484
 30
0.0
 11
172.054329
 21
98.128484
 31
0.0
  0
ARC
  8
0
  6
CONTINUOUS
 62
     2
 10
172.247945
 20
98.583484
 30
0.0
 40
0.065
 50
78.27094
 51
90.0
  0
ARC
  8
0
  6
CONTINUOUS
 62
     2
 10
172.247945
 20
98.583484
 30
0.0
 40
0.065
 50
78.27094
 51
90.0
  0
ARC
  8
0
  6
CONTINUOUS
 62
     2
 10
172.241269
 20
98.258484
 30
0.0
 40
0.13
 50
270.0
 51
281.72906
  0
ARC
  8
0
  6
CONTINUOUS
 62
     2
 10
172.054329
 20
96.698484
 30
0.0
 40
1.95
 50
78.27094
 51
90.0
  0
ARC
  8
0
  6
CONTINUOUS
 62
     2
 10
172.054329
 20
100.078484
 30
0.0
 40
1.95
 50
270.0
 51
281.72906
  0
ARC
  8
0
  6
CONTINUOUS
 62
     2
 10
173.013279
 20
98.388001
 30
0.0
 40
0.077125
 50
272.9842
 51
84.669699
  0
ARC
  8
0
  6
CONTINUOUS
 62
     2
 10
173.013279
 20
70.131201
 30
0.0
 40
0.077125
 50
272.9842
 51
84.669699
  0
ARC
  8
0
  6
CONTINUOUS
 62
     2
 10
172.054329
 20
71.821684
 30
0.0
 40
1.95
 50
270.0
 51
281.72906
  0
ARC
  8
0
  6
CONTINUOUS
 62
     2
 10
172.054329
 20
68.441684
 30
0.0
 40
1.95
 50
78.27094
 51
90.0
  0
ARC
  8
0
  6
CONTINUOUS
 62
     2
 10
172.241269
 20
70.001684
 30
0.0
 40
0.13
 50
270.0
 51
281.72906
  0
ARC
  8
0
  6
CONTINUOUS
 62
     2
 10
172.247945
 20
70.326684
 30
0.0
 40
0.065
 50
78.27094
 51
90.0
  0
ARC
  8
0
  6
CONTINUOUS
 62
     2
 10
172.247945
 20
70.326684
 30
0.0
 40
0.065
 50
78.27094
 51
90.0
  0
LINE
  8
0
  6
CONTINUOUS
 62
     2
 10
170.332973
 20
69.871684
 30
0.0
 11
172.054329
 21
69.871684
 31
0.0
  0
LINE
  8
0
  6
CONTINUOUS
 62
     2
 10
170.332973
 20
70.391684
 30
0.0
 11
172.054329
 21
70.391684
 31
0.0
  0
LINE
  8
0
  6
CONTINUOUS
 62
     2
 10
170.382254
 20
70.131684
 30
0.0
 11
173.880614
 21
70.131684
 31
0.0
  0
CIRCLE
  8
0
  6
CONTINUOUS
 62
     2
 10
169.671739
 20
70.131684
 30
0.0
 40
0.710515
  0
LINE
  8
0
  6
CONTINUOUS
 62
     2
 10
171.574939
 20
69.754684
 30
0.0
 11
171.574939
 21
69.754684
 31
0.0
  0
LINE
  8
0
  6
CONTINUOUS
 62
     2
 10
172.939939
 20
70.038084
 30
0.0
 11
172.450732
 21
69.9124
 31
0.0
  0
LINE
  8
0
  6
CONTINUOUS
 62
     2
 10
173.040322
 20
70.058973
 30
0.0
 11
172.939939
 21
70.038084
 31
0.0
  0
LINE
  8
0
  6
CONTINUOUS
 62
     2
 10
173.389739
 20
70.131684
 30
0.0
 11
173.389739
 21
70.131684
 31
0.0
  0
LINE
  8
0
  6
CONTINUOUS
 62
     2
 10
172.940031
 20
70.224726
 30
0.0
 11
173.037342
 21
70.204476
 31
0.0
  0
LINE
  8
0
  6
CONTINUOUS
 62
     2
 10
172.450732
 20
70.350967
 30
0.0
 11
172.939939
 21
70.225284
 31
0.0
  0
LINE
  8
0
  6
CONTINUOUS
 62
     2
 10
171.574939
 20
70.508684
 30
0.0
 11
171.574939
 21
70.508684
 31
0.0
  0
LINE
  8
0
  6
CONTINUOUS
 62
     2
 10
171.574939
 20
74.572484
 30
0.0
 11
171.574939
 21
74.572484
 31
0.0
  0
LINE
  8
0
  6
CONTINUOUS
 62
     2
 10
172.450732
 20
74.414767
 30
0.0
 11
172.939939
 21
74.289084
 31
0.0
  0
LINE
  8
0
  6
CONTINUOUS
 62
     2
 10
172.940031
 20
74.288526
 30
0.0
 11
173.037342
 21
74.268276
 31
0.0
  0
LINE
  8
0
  6
CONTINUOUS
 62
     2
 10
173.389739
 20
74.195484
 30
0.0
 11
173.389739
 21
74.195484
 31
0.0
  0
LINE
  8
0
  6
CONTINUOUS
 62
     2
 10
173.040322
 20
74.122773
 30
0.0
 11
172.939939
 21
74.101884
 31
0.0
  0
LINE
  8
0
  6
CONTINUOUS
 62
     2
 10
172.939939
 20
74.101884
 30
0.0
 11
172.450732
 21
73.9762
 31
0.0
  0
LINE
  8
0
  6
CONTINUOUS
 62
     2
 10
171.574939
 20
73.818484
 30
0.0
 11
171.574939
 21
73.818484
 31
0.0
  0
CIRCLE
  8
0
  6
CONTINUOUS
 62
     2
 10
169.671739
 20
74.195484
 30
0.0
 40
0.710515
  0
LINE
  8
0
  6
CONTINUOUS
 62
     2
 10
170.382254
 20
74.195484
 30
0.0
 11
173.880614
 21
74.195484
 31
0.0
  0
LINE
  8
0
  6
CONTINUOUS
 62
     2
 10
170.332973
 20
74.455484
 30
0.0
 11
172.054329
 21
74.455484
 31
0.0
  0
LINE
  8
0
  6
CONTINUOUS
 62
     2
 10
170.332973
 20
73.935484
 30
0.0
 11
172.054329
 21
73.935484
 31
0.0
  0
ARC
  8
0
  6
CONTINUOUS
 62
     2
 10
172.247945
 20
74.390484
 30
0.0
 40
0.065
 50
78.27094
 51
90.0
  0
ARC
  8
0
  6
CONTINUOUS
 62
     2
 10
172.247945
 20
74.390484
 30
0.0
 40
0.065
 50
78.27094
 51
90.0
  0
ARC
  8
0
  6
CONTINUOUS
 62
     2
 10
172.241269
 20
74.065484
 30
0.0
 40
0.13
 50
270.0
 51
281.72906
  0
ARC
  8
0
  6
CONTINUOUS
 62
     2
 10
172.054329
 20
72.505484
 30
0.0
 40
1.95
 50
78.27094
 51
90.0
  0
ARC
  8
0
  6
CONTINUOUS
 62
     2
 10
172.054329
 20
75.885484
 30
0.0
 40
1.95
 50
270.0
 51
281.72906
  0
ARC
  8
0
  6
CONTINUOUS
 62
     2
 10
173.013279
 20
74.195001
 30
0.0
 40
0.077125
 50
272.9842
 51
84.669699
  0
LINE
  8
0
  6
CONTINUOUS
 62
     2
 10
171.574939
 20
73.818484
 30
0.0
 11
171.574939
 21
73.818484
 31
0.0
  0
LINE
  8
0
  6
CONTINUOUS
 62
     2
 10
173.389739
 20
74.195484
 30
0.0
 11
173.389739
 21
74.195484
 31
0.0
  0
LINE
  8
0
  6
CONTINUOUS
 62
     2
 10
171.574939
 20
74.572484
 30
0.0
 11
171.574939
 21
74.572484
 31
0.0
  0
LINE
  8
0
  6
CONTINUOUS
 62
     2
 10
171.574939
 20
78.633684
 30
0.0
 11
171.574939
 21
78.633684
 31
0.0
  0
LINE
  8
0
  6
CONTINUOUS
 62
     2
 10
172.450732
 20
78.475967
 30
0.0
 11
172.939939
 21
78.350284
 31
0.0
  0
LINE
  8
0
  6
CONTINUOUS
 62
     2
 10
172.940031
 20
78.349726
 30
0.0
 11
173.037342
 21
78.329476
 31
0.0
  0
LINE
  8
0
  6
CONTINUOUS
 62
     2
 10
173.389739
 20
78.256684
 30
0.0
 11
173.389739
 21
78.256684
 31
0.0
  0
LINE
  8
0
  6
CONTINUOUS
 62
     2
 10
173.040322
 20
78.183973
 30
0.0
 11
172.939939
 21
78.163084
 31
0.0
  0
LINE
  8
0
  6
CONTINUOUS
 62
     2
 10
172.939939
 20
78.163084
 30
0.0
 11
172.450732
 21
78.0374
 31
0.0
  0
LINE
  8
0
  6
CONTINUOUS
 62
     2
 10
171.574939
 20
77.879684
 30
0.0
 11
171.574939
 21
77.879684
 31
0.0
  0
CIRCLE
  8
0
  6
CONTINUOUS
 62
     2
 10
169.671739
 20
78.256684
 30
0.0
 40
0.710515
  0
LINE
  8
0
  6
CONTINUOUS
 62
     2
 10
170.382254
 20
78.256684
 30
0.0
 11
173.880614
 21
78.256684
 31
0.0
  0
LINE
  8
0
  6
CONTINUOUS
 62
     2
 10
170.332973
 20
78.516684
 30
0.0
 11
172.054329
 21
78.516684
 31
0.0
  0
LINE
  8
0
  6
CONTINUOUS
 62
     2
 10
170.332973
 20
77.996684
 30
0.0
 11
172.054329
 21
77.996684
 31
0.0
  0
ARC
  8
0
  6
CONTINUOUS
 62
     2
 10
172.247945
 20
78.451684
 30
0.0
 40
0.065
 50
78.27094
 51
90.0
  0
ARC
  8
0
  6
CONTINUOUS
 62
     2
 10
172.247945
 20
78.451684
 30
0.0
 40
0.065
 50
78.27094
 51
90.0
  0
ARC
  8
0
  6
CONTINUOUS
 62
     2
 10
172.241269
 20
78.126684
 30
0.0
 40
0.13
 50
270.0
 51
281.72906
  0
ARC
  8
0
  6
CONTINUOUS
 62
     2
 10
172.054329
 20
76.566684
 30
0.0
 40
1.95
 50
78.27094
 51
90.0
  0
ARC
  8
0
  6
CONTINUOUS
 62
     2
 10
172.054329
 20
79.946684
 30
0.0
 40
1.95
 50
270.0
 51
281.72906
  0
ARC
  8
0
  6
CONTINUOUS
 62
     2
 10
173.013279
 20
78.256201
 30
0.0
 40
0.077125
 50
272.9842
 51
84.669699
  0
LINE
  8
0
  6
CONTINUOUS
 62
     2
 10
171.574939
 20
77.879684
 30
0.0
 11
171.574939
 21
77.879684
 31
0.0
  0
LINE
  8
0
  6
CONTINUOUS
 62
     2
 10
173.389739
 20
78.256684
 30
0.0
 11
173.389739
 21
78.256684
 31
0.0
  0
LINE
  8
0
  6
CONTINUOUS
 62
     2
 10
171.574939
 20
78.633684
 30
0.0
 11
171.574939
 21
78.633684
 31
0.0
  0
LINE
  8
0
  6
CONTINUOUS
 62
     2
 10
171.574939
 20
82.515484
 30
0.0
 11
171.574939
 21
82.515484
 31
0.0
  0
LINE
  8
0
  6
CONTINUOUS
 62
     2
 10
172.450732
 20
82.357767
 30
0.0
 11
172.939939
 21
82.232084
 31
0.0
  0
LINE
  8
0
  6
CONTINUOUS
 62
     2
 10
172.940031
 20
82.231526
 30
0.0
 11
173.037342
 21
82.211276
 31
0.0
  0
LINE
  8
0
  6
CONTINUOUS
 62
     2
 10
173.389739
 20
82.138484
 30
0.0
 11
173.389739
 21
82.138484
 31
0.0
  0
LINE
  8
0
  6
CONTINUOUS
 62
     2
 10
173.040322
 20
82.065773
 30
0.0
 11
172.939939
 21
82.044884
 31
0.0
  0
LINE
  8
0
  6
CONTINUOUS
 62
     2
 10
172.939939
 20
82.044884
 30
0.0
 11
172.450732
 21
81.9192
 31
0.0
  0
LINE
  8
0
  6
CONTINUOUS
 62
     2
 10
171.574939
 20
81.761484
 30
0.0
 11
171.574939
 21
81.761484
 31
0.0
  0
CIRCLE
  8
0
  6
CONTINUOUS
 62
     2
 10
169.671739
 20
82.138484
 30
0.0
 40
0.710515
  0
LINE
  8
0
  6
CONTINUOUS
 62
     2
 10
170.382254
 20
82.138484
 30
0.0
 11
173.880614
 21
82.138484
 31
0.0
  0
LINE
  8
0
  6
CONTINUOUS
 62
     2
 10
170.332973
 20
82.398484
 30
0.0
 11
172.054329
 21
82.398484
 31
0.0
  0
LINE
  8
0
  6
CONTINUOUS
 62
     2
 10
170.332973
 20
81.878484
 30
0.0
 11
172.054329
 21
81.878484
 31
0.0
  0
ARC
  8
0
  6
CONTINUOUS
 62
     2
 10
172.247945
 20
82.333484
 30
0.0
 40
0.065
 50
78.27094
 51
90.0
  0
ARC
  8
0
  6
CONTINUOUS
 62
     2
 10
172.247945
 20
82.333484
 30
0.0
 40
0.065
 50
78.27094
 51
90.0
  0
ARC
  8
0
  6
CONTINUOUS
 62
     2
 10
172.241269
 20
82.008484
 30
0.0
 40
0.13
 50
270.0
 51
281.72906
  0
ARC
  8
0
  6
CONTINUOUS
 62
     2
 10
172.054329
 20
80.448484
 30
0.0
 40
1.95
 50
78.27094
 51
90.0
  0
ARC
  8
0
  6
CONTINUOUS
 62
     2
 10
172.054329
 20
83.828484
 30
0.0
 40
1.95
 50
270.0
 51
281.72906
  0
ARC
  8
0
  6
CONTINUOUS
 62
     2
 10
173.013279
 20
82.138001
 30
0.0
 40
0.077125
 50
272.9842
 51
84.669699
  0
LINE
  8
0
  6
CONTINUOUS
 62
     2
 10
171.574939
 20
81.761484
 30
0.0
 11
171.574939
 21
81.761484
 31
0.0
  0
LINE
  8
0
  6
CONTINUOUS
 62
     2
 10
173.389739
 20
82.138484
 30
0.0
 11
173.389739
 21
82.138484
 31
0.0
  0
LINE
  8
0
  6
CONTINUOUS
 62
     2
 10
171.574939
 20
82.515484
 30
0.0
 11
171.574939
 21
82.515484
 31
0.0
  0
LINE
  8
0
  6
CONTINUOUS
 62
     2
 10
171.574939
 20
94.792684
 30
0.0
 11
171.574939
 21
94.792684
 31
0.0
  0
LINE
  8
0
  6
CONTINUOUS
 62
     2
 10
173.389739
 20
94.415684
 30
0.0
 11
173.389739
 21
94.415684
 31
0.0
  0
LINE
  8
0
  6
CONTINUOUS
 62
     2
 10
171.574939
 20
94.038684
 30
0.0
 11
171.574939
 21
94.038684
 31
0.0
  0
ARC
  8
0
  6
CONTINUOUS
 62
     2
 10
173.013279
 20
94.415201
 30
0.0
 40
0.077125
 50
272.9842
 51
84.669699
  0
ARC
  8
0
  6
CONTINUOUS
 62
     2
 10
172.054329
 20
96.105684
 30
0.0
 40
1.95
 50
270.0
 51
281.72906
  0
ARC
  8
0
  6
CONTINUOUS
 62
     2
 10
172.054329
 20
92.725684
 30
0.0
 40
1.95
 50
78.27094
 51
90.0
  0
ARC
  8
0
  6
CONTINUOUS
 62
     2
 10
172.241269
 20
94.285684
 30
0.0
 40
0.13
 50
270.0
 51
281.72906
  0
ARC
  8
0
  6
CONTINUOUS
 62
     2
 10
172.247945
 20
94.610684
 30
0.0
 40
0.065
 50
78.27094
 51
90.0
  0
ARC
  8
0
  6
CONTINUOUS
 62
     2
 10
172.247945
 20
94.610684
 30
0.0
 40
0.065
 50
78.27094
 51
90.0
  0
LINE
  8
0
  6
CONTINUOUS
 62
     2
 10
170.332973
 20
94.155684
 30
0.0
 11
172.054329
 21
94.155684
 31
0.0
  0
LINE
  8
0
  6
CONTINUOUS
 62
     2
 10
170.332973
 20
94.675684
 30
0.0
 11
172.054329
 21
94.675684
 31
0.0
  0
LINE
  8
0
  6
CONTINUOUS
 62
     2
 10
170.382254
 20
94.415684
 30
0.0
 11
173.880614
 21
94.415684
 31
0.0
  0
CIRCLE
  8
0
  6
CONTINUOUS
 62
     2
 10
169.671739
 20
94.415684
 30
0.0
 40
0.710515
  0
LINE
  8
0
  6
CONTINUOUS
 62
     2
 10
171.574939
 20
94.038684
 30
0.0
 11
171.574939
 21
94.038684
 31
0.0
  0
LINE
  8
0
  6
CONTINUOUS
 62
     2
 10
172.939939
 20
94.322084
 30
0.0
 11
172.450732
 21
94.1964
 31
0.0
  0
LINE
  8
0
  6
CONTINUOUS
 62
     2
 10
173.040322
 20
94.342973
 30
0.0
 11
172.939939
 21
94.322084
 31
0.0
  0
LINE
  8
0
  6
CONTINUOUS
 62
     2
 10
173.389739
 20
94.415684
 30
0.0
 11
173.389739
 21
94.415684
 31
0.0
  0
LINE
  8
0
  6
CONTINUOUS
 62
     2
 10
172.940031
 20
94.508726
 30
0.0
 11
173.037342
 21
94.488476
 31
0.0
  0
LINE
  8
0
  6
CONTINUOUS
 62
     2
 10
172.450732
 20
94.634967
 30
0.0
 11
172.939939
 21
94.509284
 31
0.0
  0
LINE
  8
0
  6
CONTINUOUS
 62
     2
 10
171.574939
 20
94.792684
 30
0.0
 11
171.574939
 21
94.792684
 31
0.0
  0
LINE
  8
0
  6
CONTINUOUS
 62
     2
 10
171.574939
 20
90.910884
 30
0.0
 11
171.574939
 21
90.910884
 31
0.0
  0
LINE
  8
0
  6
CONTINUOUS
 62
     2
 10
173.389739
 20
90.533884
 30
0.0
 11
173.389739
 21
90.533884
 31
0.0
  0
LINE
  8
0
  6
CONTINUOUS
 62
     2
 10
171.574939
 20
90.156884
 30
0.0
 11
171.574939
 21
90.156884
 31
0.0
  0
ARC
  8
0
  6
CONTINUOUS
 62
     2
 10
173.013279
 20
90.533401
 30
0.0
 40
0.077125
 50
272.9842
 51
84.669699
  0
ARC
  8
0
  6
CONTINUOUS
 62
     2
 10
172.054329
 20
92.223884
 30
0.0
 40
1.95
 50
270.0
 51
281.72906
  0
ARC
  8
0
  6
CONTINUOUS
 62
     2
 10
172.054329
 20
88.843884
 30
0.0
 40
1.95
 50
78.27094
 51
90.0
  0
ARC
  8
0
  6
CONTINUOUS
 62
     2
 10
172.241269
 20
90.403884
 30
0.0
 40
0.13
 50
270.0
 51
281.72906
  0
ARC
  8
0
  6
CONTINUOUS
 62
     2
 10
172.247945
 20
90.728884
 30
0.0
 40
0.065
 50
78.27094
 51
90.0
  0
ARC
  8
0
  6
CONTINUOUS
 62
     2
 10
172.247945
 20
90.728884
 30
0.0
 40
0.065
 50
78.27094
 51
90.0
  0
LINE
  8
0
  6
CONTINUOUS
 62
     2
 10
170.332973
 20
90.273884
 30
0.0
 11
172.054329
 21
90.273884
 31
0.0
  0
LINE
  8
0
  6
CONTINUOUS
 62
     2
 10
170.332973
 20
90.793884
 30
0.0
 11
172.054329
 21
90.793884
 31
0.0
  0
LINE
  8
0
  6
CONTINUOUS
 62
     2
 10
170.382254
 20
90.533884
 30
0.0
 11
173.880614
 21
90.533884
 31
0.0
  0
CIRCLE
  8
0
  6
CONTINUOUS
 62
     2
 10
169.671739
 20
90.533884
 30
0.0
 40
0.710515
  0
LINE
  8
0
  6
CONTINUOUS
 62
     2
 10
171.574939
 20
90.156884
 30
0.0
 11
171.574939
 21
90.156884
 31
0.0
  0
LINE
  8
0
  6
CONTINUOUS
 62
     2
 10
172.939939
 20
90.440284
 30
0.0
 11
172.450732
 21
90.3146
 31
0.0
  0
LINE
  8
0
  6
CONTINUOUS
 62
     2
 10
173.040322
 20
90.461173
 30
0.0
 11
172.939939
 21
90.440284
 31
0.0
  0
LINE
  8
0
  6
CONTINUOUS
 62
     2
 10
173.389739
 20
90.533884
 30
0.0
 11
173.389739
 21
90.533884
 31
0.0
  0
LINE
  8
0
  6
CONTINUOUS
 62
     2
 10
172.940031
 20
90.626926
 30
0.0
 11
173.037342
 21
90.606676
 31
0.0
  0
LINE
  8
0
  6
CONTINUOUS
 62
     2
 10
172.450732
 20
90.753167
 30
0.0
 11
172.939939
 21
90.627484
 31
0.0
  0
LINE
  8
0
  6
CONTINUOUS
 62
     2
 10
171.574939
 20
90.910884
 30
0.0
 11
171.574939
 21
90.910884
 31
0.0
  0
LINE
  8
0
  6
CONTINUOUS
 62
     2
 10
171.574939
 20
86.849684
 30
0.0
 11
171.574939
 21
86.849684
 31
0.0
  0
LINE
  8
0
  6
CONTINUOUS
 62
     2
 10
173.389739
 20
86.472684
 30
0.0
 11
173.389739
 21
86.472684
 31
0.0
  0
LINE
  8
0
  6
CONTINUOUS
 62
     2
 10
171.574939
 20
86.095684
 30
0.0
 11
171.574939
 21
86.095684
 31
0.0
  0
ARC
  8
0
  6
CONTINUOUS
 62
     2
 10
173.013279
 20
86.472201
 30
0.0
 40
0.077125
 50
272.9842
 51
84.669699
  0
ARC
  8
0
  6
CONTINUOUS
 62
     2
 10
172.054329
 20
88.162684
 30
0.0
 40
1.95
 50
270.0
 51
281.72906
  0
ARC
  8
0
  6
CONTINUOUS
 62
     2
 10
172.054329
 20
84.782684
 30
0.0
 40
1.95
 50
78.27094
 51
90.0
  0
ARC
  8
0
  6
CONTINUOUS
 62
     2
 10
172.241269
 20
86.342684
 30
0.0
 40
0.13
 50
270.0
 51
281.72906
  0
ARC
  8
0
  6
CONTINUOUS
 62
     2
 10
172.247945
 20
86.667684
 30
0.0
 40
0.065
 50
78.27094
 51
90.0
  0
ARC
  8
0
  6
CONTINUOUS
 62
     2
 10
172.247945
 20
86.667684
 30
0.0
 40
0.065
 50
78.27094
 51
90.0
  0
LINE
  8
0
  6
CONTINUOUS
 62
     2
 10
170.332973
 20
86.212684
 30
0.0
 11
172.054329
 21
86.212684
 31
0.0
  0
LINE
  8
0
  6
CONTINUOUS
 62
     2
 10
170.332973
 20
86.732684
 30
0.0
 11
172.054329
 21
86.732684
 31
0.0
  0
LINE
  8
0
  6
CONTINUOUS
 62
     2
 10
170.382254
 20
86.472684
 30
0.0
 11
173.880614
 21
86.472684
 31
0.0
  0
CIRCLE
  8
0
  6
CONTINUOUS
 62
     2
 10
169.671739
 20
86.472684
 30
0.0
 40
0.710515
  0
LINE
  8
0
  6
CONTINUOUS
 62
     2
 10
171.574939
 20
86.095684
 30
0.0
 11
171.574939
 21
86.095684
 31
0.0
  0
LINE
  8
0
  6
CONTINUOUS
 62
     2
 10
172.939939
 20
86.379084
 30
0.0
 11
172.450732
 21
86.2534
 31
0.0
  0
LINE
  8
0
  6
CONTINUOUS
 62
     2
 10
173.040322
 20
86.399973
 30
0.0
 11
172.939939
 21
86.379084
 31
0.0
  0
LINE
  8
0
  6
CONTINUOUS
 62
     2
 10
173.389739
 20
86.472684
 30
0.0
 11
173.389739
 21
86.472684
 31
0.0
  0
LINE
  8
0
  6
CONTINUOUS
 62
     2
 10
172.940031
 20
86.565726
 30
0.0
 11
173.037342
 21
86.545476
 31
0.0
  0
LINE
  8
0
  6
CONTINUOUS
 62
     2
 10
172.450732
 20
86.691967
 30
0.0
 11
172.939939
 21
86.566284
 31
0.0
  0
LINE
  8
0
  6
CONTINUOUS
 62
     2
 10
171.574939
 20
86.849684
 30
0.0
 11
171.574939
 21
86.849684
 31
0.0
  0
LINE
  8
0
  6
CONTINUOUS
 62
     4
 10
36.806539
 20
86.670284
 30
0.0
 11
36.806539
 21
86.670284
 31
0.0
  0
LINE
  8
0
  6
CONTINUOUS
 62
     4
 10
35.930745
 20
86.512567
 30
0.0
 11
35.441539
 21
86.386884
 31
0.0
  0
LINE
  8
0
  6
CONTINUOUS
 62
     4
 10
35.441446
 20
86.386326
 30
0.0
 11
35.344135
 21
86.366076
 31
0.0
  0
LINE
  8
0
  6
CONTINUOUS
 62
     4
 10
34.991739
 20
86.293284
 30
0.0
 11
34.991739
 21
86.293284
 31
0.0
  0
LINE
  8
0
  6
CONTINUOUS
 62
     4
 10
35.341155
 20
86.220573
 30
0.0
 11
35.441539
 21
86.199684
 31
0.0
  0
LINE
  8
0
  6
CONTINUOUS
 62
     4
 10
35.441539
 20
86.199684
 30
0.0
 11
35.930745
 21
86.074
 31
0.0
  0
LINE
  8
0
  6
CONTINUOUS
 62
     4
 10
36.806539
 20
85.916284
 30
0.0
 11
36.806539
 21
85.916284
 31
0.0
  0
CIRCLE
  8
0
  6
CONTINUOUS
 62
     4
 10
38.709739
 20
86.293284
 30
0.0
 40
0.710515
  0
LINE
  8
0
  6
CONTINUOUS
 62
     4
 10
37.999223
 20
86.293284
 30
0.0
 11
34.500863
 21
86.293284
 31
0.0
  0
LINE
  8
0
  6
CONTINUOUS
 62
     4
 10
38.048504
 20
86.553284
 30
0.0
 11
36.327148
 21
86.553284
 31
0.0
  0
LINE
  8
0
  6
CONTINUOUS
 62
     4
 10
38.048504
 20
86.033284
 30
0.0
 11
36.327148
 21
86.033284
 31
0.0
  0
ARC
  8
0
  6
CONTINUOUS
 62
     4
 10
36.133532
 20
86.488284
 30
0.0
 40
0.065
 50
90.0
 51
101.72906
  0
ARC
  8
0
  6
CONTINUOUS
 62
     4
 10
36.133532
 20
86.488284
 30
0.0
 40
0.065
 50
90.0
 51
101.72906
  0
ARC
  8
0
  6
CONTINUOUS
 62
     4
 10
36.140208
 20
86.163284
 30
0.0
 40
0.13
 50
258.27094
 51
270.0
  0
ARC
  8
0
  6
CONTINUOUS
 62
     4
 10
36.327148
 20
84.603284
 30
0.0
 40
1.95
 50
90.0
 51
101.72906
  0
ARC
  8
0
  6
CONTINUOUS
 62
     4
 10
36.327148
 20
87.983284
 30
0.0
 40
1.95
 50
258.27094
 51
270.0
  0
ARC
  8
0
  6
CONTINUOUS
 62
     4
 10
35.368198
 20
86.292801
 30
0.0
 40
0.077125
 50
95.330301
 51
267.0158
  0
LINE
  8
0
  6
CONTINUOUS
 62
     4
 10
36.806539
 20
85.916284
 30
0.0
 11
36.806539
 21
85.916284
 31
0.0
  0
LINE
  8
0
  6
CONTINUOUS
 62
     4
 10
34.991739
 20
86.293284
 30
0.0
 11
34.991739
 21
86.293284
 31
0.0
  0
LINE
  8
0
  6
CONTINUOUS
 62
     4
 10
36.806539
 20
86.670284
 30
0.0
 11
36.806539
 21
86.670284
 31
0.0
  0
LINE
  8
0
  6
CONTINUOUS
 62
     4
 10
36.806539
 20
90.731484
 30
0.0
 11
36.806539
 21
90.731484
 31
0.0
  0
LINE
  8
0
  6
CONTINUOUS
 62
     4
 10
35.930745
 20
90.573767
 30
0.0
 11
35.441539
 21
90.448084
 31
0.0
  0
LINE
  8
0
  6
CONTINUOUS
 62
     4
 10
35.441446
 20
90.447526
 30
0.0
 11
35.344135
 21
90.427276
 31
0.0
  0
LINE
  8
0
  6
CONTINUOUS
 62
     4
 10
34.991739
 20
90.354484
 30
0.0
 11
34.991739
 21
90.354484
 31
0.0
  0
LINE
  8
0
  6
CONTINUOUS
 62
     4
 10
35.341155
 20
90.281773
 30
0.0
 11
35.441539
 21
90.260884
 31
0.0
  0
LINE
  8
0
  6
CONTINUOUS
 62
     4
 10
35.441539
 20
90.260884
 30
0.0
 11
35.930745
 21
90.1352
 31
0.0
  0
LINE
  8
0
  6
CONTINUOUS
 62
     4
 10
36.806539
 20
89.977484
 30
0.0
 11
36.806539
 21
89.977484
 31
0.0
  0
CIRCLE
  8
0
  6
CONTINUOUS
 62
     4
 10
38.709739
 20
90.354484
 30
0.0
 40
0.710515
  0
LINE
  8
0
  6
CONTINUOUS
 62
     4
 10
37.999223
 20
90.354484
 30
0.0
 11
34.500863
 21
90.354484
 31
0.0
  0
LINE
  8
0
  6
CONTINUOUS
 62
     4
 10
38.048504
 20
90.614484
 30
0.0
 11
36.327148
 21
90.614484
 31
0.0
  0
LINE
  8
0
  6
CONTINUOUS
 62
     4
 10
38.048504
 20
90.094484
 30
0.0
 11
36.327148
 21
90.094484
 31
0.0
  0
ARC
  8
0
  6
CONTINUOUS
 62
     4
 10
36.133532
 20
90.549484
 30
0.0
 40
0.065
 50
90.0
 51
101.72906
  0
ARC
  8
0
  6
CONTINUOUS
 62
     4
 10
36.133532
 20
90.549484
 30
0.0
 40
0.065
 50
90.0
 51
101.72906
  0
ARC
  8
0
  6
CONTINUOUS
 62
     4
 10
36.140208
 20
90.224484
 30
0.0
 40
0.13
 50
258.27094
 51
270.0
  0
ARC
  8
0
  6
CONTINUOUS
 62
     4
 10
36.327148
 20
88.664484
 30
0.0
 40
1.95
 50
90.0
 51
101.72906
  0
ARC
  8
0
  6
CONTINUOUS
 62
     4
 10
36.327148
 20
92.044484
 30
0.0
 40
1.95
 50
258.27094
 51
270.0
  0
ARC
  8
0
  6
CONTINUOUS
 62
     4
 10
35.368198
 20
90.354001
 30
0.0
 40
0.077125
 50
95.330301
 51
267.0158
  0
LINE
  8
0
  6
CONTINUOUS
 62
     4
 10
36.806539
 20
89.977484
 30
0.0
 11
36.806539
 21
89.977484
 31
0.0
  0
LINE
  8
0
  6
CONTINUOUS
 62
     4
 10
34.991739
 20
90.354484
 30
0.0
 11
34.991739
 21
90.354484
 31
0.0
  0
LINE
  8
0
  6
CONTINUOUS
 62
     4
 10
36.806539
 20
90.731484
 30
0.0
 11
36.806539
 21
90.731484
 31
0.0
  0
LINE
  8
0
  6
CONTINUOUS
 62
     4
 10
36.806539
 20
94.613284
 30
0.0
 11
36.806539
 21
94.613284
 31
0.0
  0
LINE
  8
0
  6
CONTINUOUS
 62
     4
 10
35.930745
 20
94.455567
 30
0.0
 11
35.441539
 21
94.329884
 31
0.0
  0
LINE
  8
0
  6
CONTINUOUS
 62
     4
 10
35.441446
 20
94.329326
 30
0.0
 11
35.344135
 21
94.309076
 31
0.0
  0
LINE
  8
0
  6
CONTINUOUS
 62
     4
 10
34.991739
 20
94.236284
 30
0.0
 11
34.991739
 21
94.236284
 31
0.0
  0
LINE
  8
0
  6
CONTINUOUS
 62
     4
 10
35.341155
 20
94.163573
 30
0.0
 11
35.441539
 21
94.142684
 31
0.0
  0
LINE
  8
0
  6
CONTINUOUS
 62
     4
 10
35.441539
 20
94.142684
 30
0.0
 11
35.930745
 21
94.017
 31
0.0
  0
LINE
  8
0
  6
CONTINUOUS
 62
     4
 10
36.806539
 20
93.859284
 30
0.0
 11
36.806539
 21
93.859284
 31
0.0
  0
CIRCLE
  8
0
  6
CONTINUOUS
 62
     4
 10
38.709739
 20
94.236284
 30
0.0
 40
0.710515
  0
LINE
  8
0
  6
CONTINUOUS
 62
     4
 10
37.999223
 20
94.236284
 30
0.0
 11
34.500863
 21
94.236284
 31
0.0
  0
LINE
  8
0
  6
CONTINUOUS
 62
     4
 10
38.048504
 20
94.496284
 30
0.0
 11
36.327148
 21
94.496284
 31
0.0
  0
LINE
  8
0
  6
CONTINUOUS
 62
     4
 10
38.048504
 20
93.976284
 30
0.0
 11
36.327148
 21
93.976284
 31
0.0
  0
ARC
  8
0
  6
CONTINUOUS
 62
     4
 10
36.133532
 20
94.431284
 30
0.0
 40
0.065
 50
90.0
 51
101.72906
  0
ARC
  8
0
  6
CONTINUOUS
 62
     4
 10
36.133532
 20
94.431284
 30
0.0
 40
0.065
 50
90.0
 51
101.72906
  0
ARC
  8
0
  6
CONTINUOUS
 62
     4
 10
36.140208
 20
94.106284
 30
0.0
 40
0.13
 50
258.27094
 51
270.0
  0
ARC
  8
0
  6
CONTINUOUS
 62
     4
 10
36.327148
 20
92.546284
 30
0.0
 40
1.95
 50
90.0
 51
101.72906
  0
ARC
  8
0
  6
CONTINUOUS
 62
     4
 10
36.327148
 20
95.926284
 30
0.0
 40
1.95
 50
258.27094
 51
270.0
  0
ARC
  8
0
  6
CONTINUOUS
 62
     4
 10
35.368198
 20
94.235801
 30
0.0
 40
0.077125
 50
95.330301
 51
267.0158
  0
LINE
  8
0
  6
CONTINUOUS
 62
     4
 10
36.806539
 20
93.859284
 30
0.0
 11
36.806539
 21
93.859284
 31
0.0
  0
LINE
  8
0
  6
CONTINUOUS
 62
     4
 10
34.991739
 20
94.236284
 30
0.0
 11
34.991739
 21
94.236284
 31
0.0
  0
LINE
  8
0
  6
CONTINUOUS
 62
     4
 10
36.806539
 20
94.613284
 30
0.0
 11
36.806539
 21
94.613284
 31
0.0
  0
LINE
  8
0
  6
CONTINUOUS
 62
     4
 10
36.806539
 20
82.336084
 30
0.0
 11
36.806539
 21
82.336084
 31
0.0
  0
LINE
  8
0
  6
CONTINUOUS
 62
     4
 10
34.991739
 20
81.959084
 30
0.0
 11
34.991739
 21
81.959084
 31
0.0
  0
LINE
  8
0
  6
CONTINUOUS
 62
     4
 10
36.806539
 20
81.582084
 30
0.0
 11
36.806539
 21
81.582084
 31
0.0
  0
ARC
  8
0
  6
CONTINUOUS
 62
     4
 10
35.368198
 20
81.958601
 30
0.0
 40
0.077125
 50
95.330301
 51
267.0158
  0
ARC
  8
0
  6
CONTINUOUS
 62
     4
 10
36.327148
 20
83.649084
 30
0.0
 40
1.95
 50
258.27094
 51
270.0
  0
ARC
  8
0
  6
CONTINUOUS
 62
     4
 10
36.327148
 20
80.269084
 30
0.0
 40
1.95
 50
90.0
 51
101.72906
  0
ARC
  8
0
  6
CONTINUOUS
 62
     4
 10
36.140208
 20
81.829084
 30
0.0
 40
0.13
 50
258.27094
 51
270.0
  0
ARC
  8
0
  6
CONTINUOUS
 62
     4
 10
36.133532
 20
82.154084
 30
0.0
 40
0.065
 50
90.0
 51
101.72906
  0
ARC
  8
0
  6
CONTINUOUS
 62
     4
 10
36.133532
 20
82.154084
 30
0.0
 40
0.065
 50
90.0
 51
101.72906
  0
LINE
  8
0
  6
CONTINUOUS
 62
     4
 10
38.048504
 20
81.699084
 30
0.0
 11
36.327148
 21
81.699084
 31
0.0
  0
LINE
  8
0
  6
CONTINUOUS
 62
     4
 10
38.048504
 20
82.219084
 30
0.0
 11
36.327148
 21
82.219084
 31
0.0
  0
LINE
  8
0
  6
CONTINUOUS
 62
     4
 10
37.999223
 20
81.959084
 30
0.0
 11
34.500863
 21
81.959084
 31
0.0
  0
CIRCLE
  8
0
  6
CONTINUOUS
 62
     4
 10
38.709739
 20
81.959084
 30
0.0
 40
0.710515
  0
LINE
  8
0
  6
CONTINUOUS
 62
     4
 10
36.806539
 20
81.582084
 30
0.0
 11
36.806539
 21
81.582084
 31
0.0
  0
LINE
  8
0
  6
CONTINUOUS
 62
     4
 10
35.441539
 20
81.865484
 30
0.0
 11
35.930745
 21
81.7398
 31
0.0
  0
LINE
  8
0
  6
CONTINUOUS
 62
     4
 10
35.341155
 20
81.886373
 30
0.0
 11
35.441539
 21
81.865484
 31
0.0
  0
LINE
  8
0
  6
CONTINUOUS
 62
     4
 10
34.991739
 20
81.959084
 30
0.0
 11
34.991739
 21
81.959084
 31
0.0
  0
LINE
  8
0
  6
CONTINUOUS
 62
     4
 10
35.441446
 20
82.052126
 30
0.0
 11
35.344135
 21
82.031876
 31
0.0
  0
LINE
  8
0
  6
CONTINUOUS
 62
     4
 10
35.930745
 20
82.178367
 30
0.0
 11
35.441539
 21
82.052684
 31
0.0
  0
LINE
  8
0
  6
CONTINUOUS
 62
     4
 10
36.806539
 20
82.336084
 30
0.0
 11
36.806539
 21
82.336084
 31
0.0
  0
LINE
  8
0
  6
CONTINUOUS
 62
     4
 10
36.806539
 20
78.454284
 30
0.0
 11
36.806539
 21
78.454284
 31
0.0
  0
LINE
  8
0
  6
CONTINUOUS
 62
     4
 10
34.991739
 20
78.077284
 30
0.0
 11
34.991739
 21
78.077284
 31
0.0
  0
LINE
  8
0
  6
CONTINUOUS
 62
     4
 10
36.806539
 20
77.700284
 30
0.0
 11
36.806539
 21
77.700284
 31
0.0
  0
ARC
  8
0
  6
CONTINUOUS
 62
     4
 10
35.368198
 20
78.076801
 30
0.0
 40
0.077125
 50
95.330301
 51
267.0158
  0
ARC
  8
0
  6
CONTINUOUS
 62
     4
 10
36.327148
 20
79.767284
 30
0.0
 40
1.95
 50
258.27094
 51
270.0
  0
ARC
  8
0
  6
CONTINUOUS
 62
     4
 10
36.327148
 20
76.387284
 30
0.0
 40
1.95
 50
90.0
 51
101.72906
  0
ARC
  8
0
  6
CONTINUOUS
 62
     4
 10
36.140208
 20
77.947284
 30
0.0
 40
0.13
 50
258.27094
 51
270.0
  0
ARC
  8
0
  6
CONTINUOUS
 62
     4
 10
36.133532
 20
78.272284
 30
0.0
 40
0.065
 50
90.0
 51
101.72906
  0
ARC
  8
0
  6
CONTINUOUS
 62
     4
 10
36.133532
 20
78.272284
 30
0.0
 40
0.065
 50
90.0
 51
101.72906
  0
LINE
  8
0
  6
CONTINUOUS
 62
     4
 10
38.048504
 20
77.817284
 30
0.0
 11
36.327148
 21
77.817284
 31
0.0
  0
LINE
  8
0
  6
CONTINUOUS
 62
     4
 10
38.048504
 20
78.337284
 30
0.0
 11
36.327148
 21
78.337284
 31
0.0
  0
LINE
  8
0
  6
CONTINUOUS
 62
     4
 10
37.999223
 20
78.077284
 30
0.0
 11
34.500863
 21
78.077284
 31
0.0
  0
CIRCLE
  8
0
  6
CONTINUOUS
 62
     4
 10
38.709739
 20
78.077284
 30
0.0
 40
0.710515
  0
LINE
  8
0
  6
CONTINUOUS
 62
     4
 10
36.806539
 20
77.700284
 30
0.0
 11
36.806539
 21
77.700284
 31
0.0
  0
LINE
  8
0
  6
CONTINUOUS
 62
     4
 10
35.441539
 20
77.983684
 30
0.0
 11
35.930745
 21
77.858
 31
0.0
  0
LINE
  8
0
  6
CONTINUOUS
 62
     4
 10
35.341155
 20
78.004573
 30
0.0
 11
35.441539
 21
77.983684
 31
0.0
  0
LINE
  8
0
  6
CONTINUOUS
 62
     4
 10
34.991739
 20
78.077284
 30
0.0
 11
34.991739
 21
78.077284
 31
0.0
  0
LINE
  8
0
  6
CONTINUOUS
 62
     4
 10
35.441446
 20
78.170326
 30
0.0
 11
35.344135
 21
78.150076
 31
0.0
  0
LINE
  8
0
  6
CONTINUOUS
 62
     4
 10
35.930745
 20
78.296567
 30
0.0
 11
35.441539
 21
78.170884
 31
0.0
  0
LINE
  8
0
  6
CONTINUOUS
 62
     4
 10
36.806539
 20
78.454284
 30
0.0
 11
36.806539
 21
78.454284
 31
0.0
  0
LINE
  8
0
  6
CONTINUOUS
 62
     4
 10
36.806539
 20
74.393084
 30
0.0
 11
36.806539
 21
74.393084
 31
0.0
  0
LINE
  8
0
  6
CONTINUOUS
 62
     4
 10
34.991739
 20
74.016084
 30
0.0
 11
34.991739
 21
74.016084
 31
0.0
  0
LINE
  8
0
  6
CONTINUOUS
 62
     4
 10
36.806539
 20
73.639084
 30
0.0
 11
36.806539
 21
73.639084
 31
0.0
  0
ARC
  8
0
  6
CONTINUOUS
 62
     4
 10
35.368198
 20
74.015601
 30
0.0
 40
0.077125
 50
95.330301
 51
267.0158
  0
ARC
  8
0
  6
CONTINUOUS
 62
     4
 10
36.327148
 20
75.706084
 30
0.0
 40
1.95
 50
258.27094
 51
270.0
  0
ARC
  8
0
  6
CONTINUOUS
 62
     4
 10
36.327148
 20
72.326084
 30
0.0
 40
1.95
 50
90.0
 51
101.72906
  0
ARC
  8
0
  6
CONTINUOUS
 62
     4
 10
36.140208
 20
73.886084
 30
0.0
 40
0.13
 50
258.27094
 51
270.0
  0
ARC
  8
0
  6
CONTINUOUS
 62
     4
 10
36.133532
 20
74.211084
 30
0.0
 40
0.065
 50
90.0
 51
101.72906
  0
ARC
  8
0
  6
CONTINUOUS
 62
     4
 10
36.133532
 20
74.211084
 30
0.0
 40
0.065
 50
90.0
 51
101.72906
  0
LINE
  8
0
  6
CONTINUOUS
 62
     4
 10
38.048504
 20
73.756084
 30
0.0
 11
36.327148
 21
73.756084
 31
0.0
  0
LINE
  8
0
  6
CONTINUOUS
 62
     4
 10
38.048504
 20
74.276084
 30
0.0
 11
36.327148
 21
74.276084
 31
0.0
  0
LINE
  8
0
  6
CONTINUOUS
 62
     4
 10
37.999223
 20
74.016084
 30
0.0
 11
34.500863
 21
74.016084
 31
0.0
  0
CIRCLE
  8
0
  6
CONTINUOUS
 62
     4
 10
38.709739
 20
74.016084
 30
0.0
 40
0.710515
  0
LINE
  8
0
  6
CONTINUOUS
 62
     4
 10
36.806539
 20
73.639084
 30
0.0
 11
36.806539
 21
73.639084
 31
0.0
  0
LINE
  8
0
  6
CONTINUOUS
 62
     4
 10
35.441539
 20
73.922484
 30
0.0
 11
35.930745
 21
73.7968
 31
0.0
  0
LINE
  8
0
  6
CONTINUOUS
 62
     4
 10
35.341155
 20
73.943373
 30
0.0
 11
35.441539
 21
73.922484
 31
0.0
  0
LINE
  8
0
  6
CONTINUOUS
 62
     4
 10
34.991739
 20
74.016084
 30
0.0
 11
34.991739
 21
74.016084
 31
0.0
  0
LINE
  8
0
  6
CONTINUOUS
 62
     4
 10
35.441446
 20
74.109126
 30
0.0
 11
35.344135
 21
74.088876
 31
0.0
  0
LINE
  8
0
  6
CONTINUOUS
 62
     4
 10
35.930745
 20
74.235367
 30
0.0
 11
35.441539
 21
74.109684
 31
0.0
  0
LINE
  8
0
  6
CONTINUOUS
 62
     4
 10
36.806539
 20
74.393084
 30
0.0
 11
36.806539
 21
74.393084
 31
0.0
  0
LINE
  8
0
  6
CONTINUOUS
 62
     4
 10
36.806539
 20
70.329284
 30
0.0
 11
36.806539
 21
70.329284
 31
0.0
  0
LINE
  8
0
  6
CONTINUOUS
 62
     4
 10
35.930745
 20
70.171567
 30
0.0
 11
35.441539
 21
70.045884
 31
0.0
  0
LINE
  8
0
  6
CONTINUOUS
 62
     4
 10
35.441446
 20
70.045326
 30
0.0
 11
35.344135
 21
70.025076
 31
0.0
  0
LINE
  8
0
  6
CONTINUOUS
 62
     4
 10
34.991739
 20
69.952284
 30
0.0
 11
34.991739
 21
69.952284
 31
0.0
  0
LINE
  8
0
  6
CONTINUOUS
 62
     4
 10
35.341155
 20
69.879573
 30
0.0
 11
35.441539
 21
69.858684
 31
0.0
  0
LINE
  8
0
  6
CONTINUOUS
 62
     4
 10
35.441539
 20
69.858684
 30
0.0
 11
35.930745
 21
69.733
 31
0.0
  0
LINE
  8
0
  6
CONTINUOUS
 62
     4
 10
36.806539
 20
69.575284
 30
0.0
 11
36.806539
 21
69.575284
 31
0.0
  0
CIRCLE
  8
0
  6
CONTINUOUS
 62
     4
 10
38.709739
 20
69.952284
 30
0.0
 40
0.710515
  0
LINE
  8
0
  6
CONTINUOUS
 62
     4
 10
37.999223
 20
69.952284
 30
0.0
 11
34.500863
 21
69.952284
 31
0.0
  0
LINE
  8
0
  6
CONTINUOUS
 62
     4
 10
38.048504
 20
70.212284
 30
0.0
 11
36.327148
 21
70.212284
 31
0.0
  0
LINE
  8
0
  6
CONTINUOUS
 62
     4
 10
38.048504
 20
69.692284
 30
0.0
 11
36.327148
 21
69.692284
 31
0.0
  0
ARC
  8
0
  6
CONTINUOUS
 62
     4
 10
36.133532
 20
70.147284
 30
0.0
 40
0.065
 50
90.0
 51
101.72906
  0
ARC
  8
0
  6
CONTINUOUS
 62
     4
 10
36.133532
 20
70.147284
 30
0.0
 40
0.065
 50
90.0
 51
101.72906
  0
ARC
  8
0
  6
CONTINUOUS
 62
     4
 10
36.140208
 20
69.822284
 30
0.0
 40
0.13
 50
258.27094
 51
270.0
  0
ARC
  8
0
  6
CONTINUOUS
 62
     4
 10
36.327148
 20
68.262284
 30
0.0
 40
1.95
 50
90.0
 51
101.72906
  0
ARC
  8
0
  6
CONTINUOUS
 62
     4
 10
36.327148
 20
71.642284
 30
0.0
 40
1.95
 50
258.27094
 51
270.0
  0
ARC
  8
0
  6
CONTINUOUS
 62
     4
 10
35.368198
 20
69.951801
 30
0.0
 40
0.077125
 50
95.330301
 51
267.0158
  0
ARC
  8
0
  6
CONTINUOUS
 62
     4
 10
35.368198
 20
98.208601
 30
0.0
 40
0.077125
 50
95.330301
 51
267.0158
  0
ARC
  8
0
  6
CONTINUOUS
 62
     4
 10
36.327148
 20
99.899084
 30
0.0
 40
1.95
 50
258.27094
 51
270.0
  0
ARC
  8
0
  6
CONTINUOUS
 62
     4
 10
36.327148
 20
96.519084
 30
0.0
 40
1.95
 50
90.0
 51
101.72906
  0
ARC
  8
0
  6
CONTINUOUS
 62
     4
 10
36.140208
 20
98.079084
 30
0.0
 40
0.13
 50
258.27094
 51
270.0
  0
ARC
  8
0
  6
CONTINUOUS
 62
     4
 10
36.133532
 20
98.404084
 30
0.0
 40
0.065
 50
90.0
 51
101.72906
  0
ARC
  8
0
  6
CONTINUOUS
 62
     4
 10
36.133532
 20
98.404084
 30
0.0
 40
0.065
 50
90.0
 51
101.72906
  0
LINE
  8
0
  6
CONTINUOUS
 62
     4
 10
38.048504
 20
97.949084
 30
0.0
 11
36.327148
 21
97.949084
 31
0.0
  0
LINE
  8
0
  6
CONTINUOUS
 62
     4
 10
38.048504
 20
98.469084
 30
0.0
 11
36.327148
 21
98.469084
 31
0.0
  0
LINE
  8
0
  6
CONTINUOUS
 62
     4
 10
37.999223
 20
98.209084
 30
0.0
 11
34.500863
 21
98.209084
 31
0.0
  0
CIRCLE
  8
0
  6
CONTINUOUS
 62
     4
 10
38.709739
 20
98.209084
 30
0.0
 40
0.710515
  0
LINE
  8
0
  6
CONTINUOUS
 62
     4
 10
36.806539
 20
69.575284
 30
0.0
 11
36.806539
 21
69.575284
 31
0.0
  0
LINE
  8
0
  6
CONTINUOUS
 62
     4
 10
34.991739
 20
69.952284
 30
0.0
 11
34.991739
 21
69.952284
 31
0.0
  0
LINE
  8
0
  6
CONTINUOUS
 62
     4
 10
36.806539
 20
70.329284
 30
0.0
 11
36.806539
 21
70.329284
 31
0.0
  0
LINE
  8
0
  6
CONTINUOUS
 62
     4
 10
36.806539
 20
97.832084
 30
0.0
 11
36.806539
 21
97.832084
 31
0.0
  0
LINE
  8
0
  6
CONTINUOUS
 62
     4
 10
35.441539
 20
98.115484
 30
0.0
 11
35.930745
 21
97.9898
 31
0.0
  0
LINE
  8
0
  6
CONTINUOUS
 62
     4
 10
35.341155
 20
98.136373
 30
0.0
 11
35.441539
 21
98.115484
 31
0.0
  0
LINE
  8
0
  6
CONTINUOUS
 62
     4
 10
34.991739
 20
98.209084
 30
0.0
 11
34.991739
 21
98.209084
 31
0.0
  0
LINE
  8
0
  6
CONTINUOUS
 62
     4
 10
35.441446
 20
98.302126
 30
0.0
 11
35.344135
 21
98.281876
 31
0.0
  0
LINE
  8
0
  6
CONTINUOUS
 62
     4
 10
35.930745
 20
98.428367
 30
0.0
 11
35.441539
 21
98.302684
 31
0.0
  0
LINE
  8
0
  6
CONTINUOUS
 62
     4
 10
36.806539
 20
98.586084
 30
0.0
 11
36.806539
 21
98.586084
 31
0.0
  0
LINE
  8
0
  6
CONTINUOUS
 62
     6
 10
130.099739
 20
110.169084
 30
0.0
 11
130.099739
 21
58.169084
 31
0.0
  0
LINE
  8
LAYER1
  6
CONTINUOUS
 62
     2
 10
122.109939
 20
96.636084
 30
0.0
 11
119.632139
 21
96.636084
 31
0.0
  0
LINE
  8
LAYER1
  6
CONTINUOUS
 62
     2
 10
122.109939
 20
95.102084
 30
0.0
 11
119.632139
 21
95.102084
 31
0.0
  0
LINE
  8
LAYER1
  6
CONTINUOUS
 62
     2
 10
118.137139
 20
96.636084
 30
0.0
 11
113.802939
 21
96.636084
 31
0.0
  0
LINE
  8
LAYER1
  6
CONTINUOUS
 62
     2
 10
118.137139
 20
95.102084
 30
0.0
 11
113.802939
 21
95.102084
 31
0.0
  0
LINE
  8
LAYER1
  6
CONTINUOUS
 62
     2
 10
112.268939
 20
96.636084
 30
0.0
 11
108.296139
 21
96.636084
 31
0.0
  0
LINE
  8
LAYER1
  6
CONTINUOUS
 62
     2
 10
112.268939
 20
95.102084
 30
0.0
 11
108.296139
 21
95.102084
 31
0.0
  0
LINE
  8
LAYER1
  6
CONTINUOUS
 62
     2
 10
106.853139
 20
96.636084
 30
0.0
 11
102.339539
 21
96.636084
 31
0.0
  0
LINE
  8
LAYER1
  6
CONTINUOUS
 62
     2
 10
106.853139
 20
95.102084
 30
0.0
 11
102.339539
 21
95.102084
 31
0.0
  0
LINE
  8
LAYER1
  6
CONTINUOUS
 62
     2
 10
100.984939
 20
96.636084
 30
0.0
 11
100.065839
 21
96.636084
 31
0.0
  0
LINE
  8
LAYER1
  6
CONTINUOUS
 62
     2
 10
100.984939
 20
95.102084
 30
0.0
 11
100.146313
 21
95.102084
 31
0.0
  0
LINE
  8
LAYER1
  6
CONTINUOUS
 62
     2
 10
122.109939
 20
93.711084
 30
0.0
 11
119.632139
 21
93.711084
 31
0.0
  0
LINE
  8
LAYER1
  6
CONTINUOUS
 62
     2
 10
122.109939
 20
92.177084
 30
0.0
 11
119.632139
 21
92.177084
 31
0.0
  0
LINE
  8
LAYER1
  6
CONTINUOUS
 62
     2
 10
118.137139
 20
93.711084
 30
0.0
 11
113.802939
 21
93.711084
 31
0.0
  0
LINE
  8
LAYER1
  6
CONTINUOUS
 62
     2
 10
118.137139
 20
92.177084
 30
0.0
 11
113.802939
 21
92.177084
 31
0.0
  0
LINE
  8
LAYER1
  6
CONTINUOUS
 62
     2
 10
112.268939
 20
93.711084
 30
0.0
 11
108.296139
 21
93.711084
 31
0.0
  0
LINE
  8
LAYER1
  6
CONTINUOUS
 62
     2
 10
112.268939
 20
92.177084
 30
0.0
 11
108.296139
 21
92.177084
 31
0.0
  0
LINE
  8
LAYER1
  6
CONTINUOUS
 62
     2
 10
106.853139
 20
93.711084
 30
0.0
 11
102.339539
 21
93.711084
 31
0.0
  0
LINE
  8
LAYER1
  6
CONTINUOUS
 62
     2
 10
106.853139
 20
92.177084
 30
0.0
 11
102.339539
 21
92.177084
 31
0.0
  0
LINE
  8
LAYER1
  6
CONTINUOUS
 62
     2
 10
100.984939
 20
93.711084
 30
0.0
 11
100.142976
 21
93.711084
 31
0.0
  0
LINE
  8
LAYER1
  6
CONTINUOUS
 62
     2
 10
100.984939
 20
92.177084
 30
0.0
 11
100.139296
 21
92.177084
 31
0.0
  0
LINE
  8
LAYER1
  6
CONTINUOUS
 62
     2
 10
122.109939
 20
90.427284
 30
0.0
 11
119.632139
 21
90.427284
 31
0.0
  0
LINE
  8
LAYER1
  6
CONTINUOUS
 62
     2
 10
122.109939
 20
89.252084
 30
0.0
 11
119.632139
 21
89.252084
 31
0.0
  0
LINE
  8
LAYER1
  6
CONTINUOUS
 62
     2
 10
118.137139
 20
90.427284
 30
0.0
 11
113.802939
 21
90.427284
 31
0.0
  0
LINE
  8
LAYER1
  6
CONTINUOUS
 62
     2
 10
118.137139
 20
89.252084
 30
0.0
 11
113.802939
 21
89.252084
 31
0.0
  0
LINE
  8
LAYER1
  6
CONTINUOUS
 62
     2
 10
112.268939
 20
90.427284
 30
0.0
 11
108.296139
 21
90.427284
 31
0.0
  0
LINE
  8
LAYER1
  6
CONTINUOUS
 62
     2
 10
112.268939
 20
89.252084
 30
0.0
 11
108.296139
 21
89.252084
 31
0.0
  0
LINE
  8
LAYER1
  6
CONTINUOUS
 62
     2
 10
106.853139
 20
90.427284
 30
0.0
 11
102.339539
 21
90.427284
 31
0.0
  0
LINE
  8
LAYER1
  6
CONTINUOUS
 62
     2
 10
106.853139
 20
89.252084
 30
0.0
 11
102.339539
 21
89.252084
 31
0.0
  0
LINE
  8
LAYER1
  6
CONTINUOUS
 62
     2
 10
100.984939
 20
90.427284
 30
0.0
 11
100.135098
 21
90.427284
 31
0.0
  0
LINE
  8
LAYER1
  6
CONTINUOUS
 62
     2
 10
100.984939
 20
89.252084
 30
0.0
 11
100.132279
 21
89.252084
 31
0.0
  0
LINE
  8
LAYER1
  6
CONTINUOUS
 62
     2
 10
122.109939
 20
76.163684
 30
0.0
 11
119.632139
 21
76.163684
 31
0.0
  0
LINE
  8
LAYER1
  6
CONTINUOUS
 62
     2
 10
122.109939
 20
74.988484
 30
0.0
 11
119.632139
 21
74.988484
 31
0.0
  0
LINE
  8
LAYER1
  6
CONTINUOUS
 62
     2
 10
118.137139
 20
76.163684
 30
0.0
 11
113.802939
 21
76.163684
 31
0.0
  0
LINE
  8
LAYER1
  6
CONTINUOUS
 62
     2
 10
118.137139
 20
74.988484
 30
0.0
 11
113.802939
 21
74.988484
 31
0.0
  0
LINE
  8
LAYER1
  6
CONTINUOUS
 62
     2
 10
112.268939
 20
76.163684
 30
0.0
 11
108.296139
 21
76.163684
 31
0.0
  0
LINE
  8
LAYER1
  6
CONTINUOUS
 62
     2
 10
112.268939
 20
74.988484
 30
0.0
 11
108.296139
 21
74.988484
 31
0.0
  0
LINE
  8
LAYER1
  6
CONTINUOUS
 62
     2
 10
106.853139
 20
76.163684
 30
0.0
 11
102.339539
 21
76.163684
 31
0.0
  0
LINE
  8
LAYER1
  6
CONTINUOUS
 62
     2
 10
106.853139
 20
74.988484
 30
0.0
 11
102.339539
 21
74.988484
 31
0.0
  0
LINE
  8
LAYER1
  6
CONTINUOUS
 62
     2
 10
100.984939
 20
76.163684
 30
0.0
 11
100.100879
 21
76.163684
 31
0.0
  0
LINE
  8
LAYER1
  6
CONTINUOUS
 62
     2
 10
100.984939
 20
74.988484
 30
0.0
 11
100.09806
 21
74.988484
 31
0.0
  0
LINE
  8
LAYER1
  6
CONTINUOUS
 62
     2
 10
122.109939
 20
78.997684
 30
0.0
 11
119.632139
 21
78.997684
 31
0.0
  0
LINE
  8
LAYER1
  6
CONTINUOUS
 62
     2
 10
122.109939
 20
77.913484
 30
0.0
 11
119.632139
 21
77.913484
 31
0.0
  0
LINE
  8
LAYER1
  6
CONTINUOUS
 62
     2
 10
118.137139
 20
78.997684
 30
0.0
 11
113.802939
 21
78.997684
 31
0.0
  0
LINE
  8
LAYER1
  6
CONTINUOUS
 62
     2
 10
118.137139
 20
77.913484
 30
0.0
 11
113.802939
 21
77.913484
 31
0.0
  0
LINE
  8
LAYER1
  6
CONTINUOUS
 62
     2
 10
112.268939
 20
78.997684
 30
0.0
 11
108.296139
 21
78.997684
 31
0.0
  0
LINE
  8
LAYER1
  6
CONTINUOUS
 62
     2
 10
112.268939
 20
77.913484
 30
0.0
 11
108.296139
 21
77.913484
 31
0.0
  0
LINE
  8
LAYER1
  6
CONTINUOUS
 62
     2
 10
106.853139
 20
78.997684
 30
0.0
 11
102.339539
 21
78.997684
 31
0.0
  0
LINE
  8
LAYER1
  6
CONTINUOUS
 62
     2
 10
106.853139
 20
77.913484
 30
0.0
 11
102.339539
 21
77.913484
 31
0.0
  0
LINE
  8
LAYER1
  6
CONTINUOUS
 62
     2
 10
100.984939
 20
78.997684
 30
0.0
 11
100.107678
 21
78.997684
 31
0.0
  0
LINE
  8
LAYER1
  6
CONTINUOUS
 62
     2
 10
100.984939
 20
77.913484
 30
0.0
 11
100.105077
 21
77.913484
 31
0.0
  0
LINE
  8
LAYER1
  6
CONTINUOUS
 62
     2
 10
122.109939
 20
81.652284
 30
0.0
 11
119.632139
 21
81.652284
 31
0.0
  0
LINE
  8
LAYER1
  6
CONTINUOUS
 62
     2
 10
122.109939
 20
80.747484
 30
0.0
 11
119.632139
 21
80.747484
 31
0.0
  0
LINE
  8
LAYER1
  6
CONTINUOUS
 62
     2
 10
118.137139
 20
81.652284
 30
0.0
 11
113.802939
 21
81.652284
 31
0.0
  0
LINE
  8
LAYER1
  6
CONTINUOUS
 62
     2
 10
118.137139
 20
80.747484
 30
0.0
 11
113.802939
 21
80.747484
 31
0.0
  0
LINE
  8
LAYER1
  6
CONTINUOUS
 62
     2
 10
112.268939
 20
81.652284
 30
0.0
 11
108.296139
 21
81.652284
 31
0.0
  0
LINE
  8
LAYER1
  6
CONTINUOUS
 62
     2
 10
112.268939
 20
80.747484
 30
0.0
 11
108.296139
 21
80.747484
 31
0.0
  0
LINE
  8
LAYER1
  6
CONTINUOUS
 62
     2
 10
106.853139
 20
81.652284
 30
0.0
 11
102.339539
 21
81.652284
 31
0.0
  0
LINE
  8
LAYER1
  6
CONTINUOUS
 62
     2
 10
106.853139
 20
80.747484
 30
0.0
 11
102.339539
 21
80.747484
 31
0.0
  0
LINE
  8
LAYER1
  6
CONTINUOUS
 62
     2
 10
100.984939
 20
81.652284
 30
0.0
 11
100.114046
 21
81.652284
 31
0.0
  0
LINE
  8
LAYER1
  6
CONTINUOUS
 62
     2
 10
100.984939
 20
80.747484
 30
0.0
 11
100.111876
 21
80.747484
 31
0.0
  0
LINE
  8
LAYER1
  6
CONTINUOUS
 62
     2
 10
122.109939
 20
84.577284
 30
0.0
 11
119.632139
 21
84.577284
 31
0.0
  0
LINE
  8
LAYER1
  6
CONTINUOUS
 62
     2
 10
122.109939
 20
83.402084
 30
0.0
 11
119.632139
 21
83.402084
 31
0.0
  0
LINE
  8
LAYER1
  6
CONTINUOUS
 62
     2
 10
118.137139
 20
84.577284
 30
0.0
 11
113.802939
 21
84.577284
 31
0.0
  0
LINE
  8
LAYER1
  6
CONTINUOUS
 62
     2
 10
112.268939
 20
84.577284
 30
0.0
 11
108.296139
 21
84.577284
 31
0.0
  0
LINE
  8
LAYER1
  6
CONTINUOUS
 62
     2
 10
112.268939
 20
83.402084
 30
0.0
 11
108.296139
 21
83.402084
 31
0.0
  0
LINE
  8
LAYER1
  6
CONTINUOUS
 62
     2
 10
106.853139
 20
84.577284
 30
0.0
 11
102.339539
 21
84.577284
 31
0.0
  0
LINE
  8
LAYER1
  6
CONTINUOUS
 62
     2
 10
106.853139
 20
83.402084
 30
0.0
 11
102.339539
 21
83.402084
 31
0.0
  0
LINE
  8
LAYER1
  6
CONTINUOUS
 62
     2
 10
100.984939
 20
84.577284
 30
0.0
 11
100.121064
 21
84.577284
 31
0.0
  0
LINE
  8
LAYER1
  6
CONTINUOUS
 62
     2
 10
100.984939
 20
83.402084
 30
0.0
 11
100.118244
 21
83.402084
 31
0.0
  0
LINE
  8
LAYER1
  6
CONTINUOUS
 62
     2
 10
122.109939
 20
87.502284
 30
0.0
 11
119.632139
 21
87.502284
 31
0.0
  0
LINE
  8
LAYER1
  6
CONTINUOUS
 62
     2
 10
122.109939
 20
86.327084
 30
0.0
 11
119.632139
 21
86.327084
 31
0.0
  0
LINE
  8
LAYER1
  6
CONTINUOUS
 62
     2
 10
118.137139
 20
87.502284
 30
0.0
 11
113.802939
 21
87.502284
 31
0.0
  0
LINE
  8
LAYER1
  6
CONTINUOUS
 62
     2
 10
118.137139
 20
86.327084
 30
0.0
 11
113.802939
 21
86.327084
 31
0.0
  0
LINE
  8
LAYER1
  6
CONTINUOUS
 62
     2
 10
112.268939
 20
87.502284
 30
0.0
 11
108.296139
 21
87.502284
 31
0.0
  0
LINE
  8
LAYER1
  6
CONTINUOUS
 62
     2
 10
112.268939
 20
86.327084
 30
0.0
 11
108.296139
 21
86.327084
 31
0.0
  0
LINE
  8
LAYER1
  6
CONTINUOUS
 62
     2
 10
106.853139
 20
87.502284
 30
0.0
 11
102.339539
 21
87.502284
 31
0.0
  0
LINE
  8
LAYER1
  6
CONTINUOUS
 62
     2
 10
106.853139
 20
86.327084
 30
0.0
 11
102.339539
 21
86.327084
 31
0.0
  0
LINE
  8
LAYER1
  6
CONTINUOUS
 62
     2
 10
100.984939
 20
87.502284
 30
0.0
 11
100.128081
 21
87.502284
 31
0.0
  0
LINE
  8
LAYER1
  6
CONTINUOUS
 62
     2
 10
100.984939
 20
86.327084
 30
0.0
 11
100.125262
 21
86.327084
 31
0.0
  0
LINE
  8
LAYER1
  6
CONTINUOUS
 62
     2
 10
122.109939
 20
70.040684
 30
0.0
 11
119.632139
 21
70.040684
 31
0.0
  0
LINE
  8
LAYER1
  6
CONTINUOUS
 62
     2
 10
122.109939
 20
69.229484
 30
0.0
 11
119.632139
 21
69.229484
 31
0.0
  0
LINE
  8
LAYER1
  6
CONTINUOUS
 62
     2
 10
118.137139
 20
70.040684
 30
0.0
 11
113.802939
 21
70.040684
 31
0.0
  0
LINE
  8
LAYER1
  6
CONTINUOUS
 62
     2
 10
118.137139
 20
69.229484
 30
0.0
 11
113.802939
 21
69.229484
 31
0.0
  0
LINE
  8
LAYER1
  6
CONTINUOUS
 62
     2
 10
112.268939
 20
70.040684
 30
0.0
 11
108.296139
 21
70.040684
 31
0.0
  0
LINE
  8
LAYER1
  6
CONTINUOUS
 62
     2
 10
112.268939
 20
69.229484
 30
0.0
 11
108.296139
 21
69.229484
 31
0.0
  0
LINE
  8
LAYER1
  6
CONTINUOUS
 62
     2
 10
106.853139
 20
70.040684
 30
0.0
 11
102.339539
 21
70.040684
 31
0.0
  0
LINE
  8
LAYER1
  6
CONTINUOUS
 62
     2
 10
106.853139
 20
69.229484
 30
0.0
 11
102.339539
 21
69.229484
 31
0.0
  0
LINE
  8
LAYER1
  6
CONTINUOUS
 62
     2
 10
100.984939
 20
70.040684
 30
0.0
 11
99.944939
 21
70.040684
 31
0.0
  0
LINE
  8
LAYER1
  6
CONTINUOUS
 62
     2
 10
100.984939
 20
69.229484
 30
0.0
 11
99.944939
 21
69.229484
 31
0.0
  0
LINE
  8
LAYER1
  6
CONTINUOUS
 62
     2
 10
118.137139
 20
83.325434
 30
0.0
 11
113.802939
 21
83.325434
 31
0.0
  0
LINE
  8
LAYER1
  6
CONTINUOUS
 62
     4
 10
72.546139
 20
99.652084
 30
0.0
 11
94.214539
 21
99.652084
 31
0.0
  0
LINE
  8
LAYER1
  6
CONTINUOUS
 62
     4
 10
72.546139
 20
98.027084
 30
0.0
 11
93.083539
 21
98.027084
 31
0.0
  0
LINE
  8
LAYER1
  6
CONTINUOUS
 62
     4
 10
72.546139
 20
96.636084
 30
0.0
 11
94.032539
 21
96.636084
 31
0.0
  0
LINE
  8
LAYER1
  6
CONTINUOUS
 62
     4
 10
72.546139
 20
95.102084
 30
0.0
 11
94.032539
 21
95.102084
 31
0.0
  0
LINE
  8
LAYER1
  6
CONTINUOUS
 62
     4
 10
72.546139
 20
93.711084
 30
0.0
 11
94.032539
 21
93.711084
 31
0.0
  0
LINE
  8
LAYER1
  6
CONTINUOUS
 62
     4
 10
72.546139
 20
92.177084
 30
0.0
 11
94.032539
 21
92.177084
 31
0.0
  0
LINE
  8
LAYER1
  6
CONTINUOUS
 62
     4
 10
72.546139
 20
90.427284
 30
0.0
 11
94.032539
 21
90.427284
 31
0.0
  0
LINE
  8
LAYER1
  6
CONTINUOUS
 62
     4
 10
72.546139
 20
89.252084
 30
0.0
 11
94.032539
 21
89.252084
 31
0.0
  0
LINE
  8
LAYER1
  6
CONTINUOUS
 62
     4
 10
72.546139
 20
87.502284
 30
0.0
 11
94.032539
 21
87.502284
 31
0.0
  0
LINE
  8
LAYER1
  6
CONTINUOUS
 62
     4
 10
72.546139
 20
86.327084
 30
0.0
 11
94.032539
 21
86.327084
 31
0.0
  0
LINE
  8
LAYER1
  6
CONTINUOUS
 62
     4
 10
72.546139
 20
84.577284
 30
0.0
 11
94.032539
 21
84.577284
 31
0.0
  0
LINE
  8
LAYER1
  6
CONTINUOUS
 62
     4
 10
72.546139
 20
83.402084
 30
0.0
 11
94.032539
 21
83.402084
 31
0.0
  0
LINE
  8
LAYER1
  6
CONTINUOUS
 62
     4
 10
72.546139
 20
78.997684
 30
0.0
 11
94.032539
 21
78.997684
 31
0.0
  0
LINE
  8
LAYER1
  6
CONTINUOUS
 62
     4
 10
72.546139
 20
77.913484
 30
0.0
 11
94.032539
 21
77.913484
 31
0.0
  0
LINE
  8
LAYER1
  6
CONTINUOUS
 62
     4
 10
72.546139
 20
76.163684
 30
0.0
 11
94.032539
 21
76.163684
 31
0.0
  0
LINE
  8
LAYER1
  6
CONTINUOUS
 62
     4
 10
72.546139
 20
74.988484
 30
0.0
 11
94.032539
 21
74.988484
 31
0.0
  0
LINE
  8
LAYER1
  6
CONTINUOUS
 62
     4
 10
72.546139
 20
70.040684
 30
0.0
 11
94.032539
 21
70.040684
 31
0.0
  0
LINE
  8
LAYER1
  6
CONTINUOUS
 62
     4
 10
72.546139
 20
69.229484
 30
0.0
 11
94.032539
 21
69.229484
 31
0.0
  0
LINE
  8
0
  6
CONTINUOUS
 62
     2
 10
102.204159
 20
38.767621
 30
0.0
 11
102.204159
 21
38.767621
 31
0.0
  0
LINE
  8
0
  6
CONTINUOUS
 62
     2
 10
102.361875
 20
37.891828
 30
0.0
 11
102.487559
 21
37.402621
 31
0.0
  0
LINE
  8
0
  6
CONTINUOUS
 62
     2
 10
102.488116
 20
37.402528
 30
0.0
 11
102.508366
 21
37.305217
 31
0.0
  0
LINE
  8
0
  6
CONTINUOUS
 62
     2
 10
102.581159
 20
36.952821
 30
0.0
 11
102.581159
 21
36.952821
 31
0.0
  0
LINE
  8
0
  6
CONTINUOUS
 62
     2
 10
102.65387
 20
37.302238
 30
0.0
 11
102.674759
 21
37.402621
 31
0.0
  0
LINE
  8
0
  6
CONTINUOUS
 62
     2
 10
102.674759
 20
37.402621
 30
0.0
 11
102.800442
 21
37.891828
 31
0.0
  0
LINE
  8
0
  6
CONTINUOUS
 62
     2
 10
102.958159
 20
38.767621
 30
0.0
 11
102.958159
 21
38.767621
 31
0.0
  0
CIRCLE
  8
0
  6
CONTINUOUS
 62
     2
 10
102.581159
 20
40.670821
 30
0.0
 40
0.710515
  0
LINE
  8
0
  6
CONTINUOUS
 62
     2
 10
102.581159
 20
39.960306
 30
0.0
 11
102.581159
 21
36.461946
 31
0.0
  0
LINE
  8
0
  6
CONTINUOUS
 62
     2
 10
102.321159
 20
40.009586
 30
0.0
 11
102.321159
 21
38.288231
 31
0.0
  0
LINE
  8
0
  6
CONTINUOUS
 62
     2
 10
102.841159
 20
40.009586
 30
0.0
 11
102.841159
 21
38.288231
 31
0.0
  0
ARC
  8
0
  6
CONTINUOUS
 62
     2
 10
102.386159
 20
38.094615
 30
0.0
 40
0.065
 50
180.0
 51
191.72906
  0
ARC
  8
0
  6
CONTINUOUS
 62
     2
 10
102.386159
 20
38.094615
 30
0.0
 40
0.065
 50
180.0
 51
191.72906
  0
ARC
  8
0
  6
CONTINUOUS
 62
     2
 10
102.711159
 20
38.101291
 30
0.0
 40
0.13
 50
348.27094
 51
0.0
  0
ARC
  8
0
  6
CONTINUOUS
 62
     2
 10
104.271159
 20
38.288231
 30
0.0
 40
1.95
 50
180.0
 51
191.72906
  0
ARC
  8
0
  6
CONTINUOUS
 62
     2
 10
100.891159
 20
38.288231
 30
0.0
 40
1.95
 50
348.27094
 51
0.0
  0
ARC
  8
0
  6
CONTINUOUS
 62
     2
 10
102.581641
 20
37.32928
 30
0.0
 40
0.077125
 50
185.330301
 51
357.0158
  0
LINE
  8
0
  6
CONTINUOUS
 62
     2
 10
102.958159
 20
38.767621
 30
0.0
 11
102.958159
 21
38.767621
 31
0.0
  0
LINE
  8
0
  6
CONTINUOUS
 62
     2
 10
102.581159
 20
36.952821
 30
0.0
 11
102.581159
 21
36.952821
 31
0.0
  0
LINE
  8
0
  6
CONTINUOUS
 62
     2
 10
102.204159
 20
38.767621
 30
0.0
 11
102.204159
 21
38.767621
 31
0.0
  0
LINE
  8
0
  6
CONTINUOUS
 62
     2
 10
108.233138
 20
38.767621
 30
0.0
 11
108.233138
 21
38.767621
 31
0.0
  0
LINE
  8
0
  6
CONTINUOUS
 62
     2
 10
108.610138
 20
36.952821
 30
0.0
 11
108.610138
 21
36.952821
 31
0.0
  0
LINE
  8
0
  6
CONTINUOUS
 62
     2
 10
108.987138
 20
38.767621
 30
0.0
 11
108.987138
 21
38.767621
 31
0.0
  0
ARC
  8
0
  6
CONTINUOUS
 62
     2
 10
108.61062
 20
37.32928
 30
0.0
 40
0.077125
 50
185.330301
 51
357.0158
  0
ARC
  8
0
  6
CONTINUOUS
 62
     2
 10
106.920138
 20
38.288231
 30
0.0
 40
1.95
 50
348.27094
 51
0.0
  0
ARC
  8
0
  6
CONTINUOUS
 62
     2
 10
110.300138
 20
38.288231
 30
0.0
 40
1.95
 50
180.0
 51
191.72906
  0
ARC
  8
0
  6
CONTINUOUS
 62
     2
 10
108.740138
 20
38.101291
 30
0.0
 40
0.13
 50
348.27094
 51
0.0
  0
ARC
  8
0
  6
CONTINUOUS
 62
     2
 10
108.415138
 20
38.094615
 30
0.0
 40
0.065
 50
180.0
 51
191.72906
  0
ARC
  8
0
  6
CONTINUOUS
 62
     2
 10
108.415138
 20
38.094615
 30
0.0
 40
0.065
 50
180.0
 51
191.72906
  0
LINE
  8
0
  6
CONTINUOUS
 62
     2
 10
108.870138
 20
40.009586
 30
0.0
 11
108.870138
 21
38.288231
 31
0.0
  0
LINE
  8
0
  6
CONTINUOUS
 62
     2
 10
108.350138
 20
40.009586
 30
0.0
 11
108.350138
 21
38.288231
 31
0.0
  0
LINE
  8
0
  6
CONTINUOUS
 62
     2
 10
108.610138
 20
39.960306
 30
0.0
 11
108.610138
 21
36.461946
 31
0.0
  0
CIRCLE
  8
0
  6
CONTINUOUS
 62
     2
 10
108.610138
 20
40.670821
 30
0.0
 40
0.710515
  0
LINE
  8
0
  6
CONTINUOUS
 62
     2
 10
108.987138
 20
38.767621
 30
0.0
 11
108.987138
 21
38.767621
 31
0.0
  0
LINE
  8
0
  6
CONTINUOUS
 62
     2
 10
108.703738
 20
37.402621
 30
0.0
 11
108.829421
 21
37.891828
 31
0.0
  0
LINE
  8
0
  6
CONTINUOUS
 62
     2
 10
108.682849
 20
37.302238
 30
0.0
 11
108.703738
 21
37.402621
 31
0.0
  0
LINE
  8
0
  6
CONTINUOUS
 62
     2
 10
108.610138
 20
36.952821
 30
0.0
 11
108.610138
 21
36.952821
 31
0.0
  0
LINE
  8
0
  6
CONTINUOUS
 62
     2
 10
108.517095
 20
37.402528
 30
0.0
 11
108.537345
 21
37.305217
 31
0.0
  0
LINE
  8
0
  6
CONTINUOUS
 62
     2
 10
108.390854
 20
37.891828
 30
0.0
 11
108.516538
 21
37.402621
 31
0.0
  0
LINE
  8
0
  6
CONTINUOUS
 62
     2
 10
108.233138
 20
38.767621
 30
0.0
 11
108.233138
 21
38.767621
 31
0.0
  0
LINE
  8
0
  6
CONTINUOUS
 62
     2
 10
114.280283
 20
38.796346
 30
0.0
 11
114.280283
 21
38.796346
 31
0.0
  0
LINE
  8
0
  6
CONTINUOUS
 62
     2
 10
114.657283
 20
36.981546
 30
0.0
 11
114.657283
 21
36.981546
 31
0.0
  0
LINE
  8
0
  6
CONTINUOUS
 62
     2
 10
115.034283
 20
38.796346
 30
0.0
 11
115.034283
 21
38.796346
 31
0.0
  0
ARC
  8
0
  6
CONTINUOUS
 62
     2
 10
114.657766
 20
37.358005
 30
0.0
 40
0.077125
 50
185.330301
 51
357.0158
  0
ARC
  8
0
  6
CONTINUOUS
 62
     2
 10
112.967283
 20
38.316956
 30
0.0
 40
1.95
 50
348.27094
 51
0.0
  0
ARC
  8
0
  6
CONTINUOUS
 62
     2
 10
116.347283
 20
38.316956
 30
0.0
 40
1.95
 50
180.0
 51
191.72906
  0
ARC
  8
0
  6
CONTINUOUS
 62
     2
 10
114.787283
 20
38.130016
 30
0.0
 40
0.13
 50
348.27094
 51
0.0
  0
ARC
  8
0
  6
CONTINUOUS
 62
     2
 10
114.462283
 20
38.12334
 30
0.0
 40
0.065
 50
180.0
 51
191.72906
  0
ARC
  8
0
  6
CONTINUOUS
 62
     2
 10
114.462283
 20
38.12334
 30
0.0
 40
0.065
 50
180.0
 51
191.72906
  0
LINE
  8
0
  6
CONTINUOUS
 62
     2
 10
114.917283
 20
40.038312
 30
0.0
 11
114.917283
 21
38.316956
 31
0.0
  0
LINE
  8
0
  6
CONTINUOUS
 62
     2
 10
114.397283
 20
40.038312
 30
0.0
 11
114.397283
 21
38.316956
 31
0.0
  0
LINE
  8
0
  6
CONTINUOUS
 62
     2
 10
114.657283
 20
39.989031
 30
0.0
 11
114.657283
 21
36.490671
 31
0.0
  0
CIRCLE
  8
0
  6
CONTINUOUS
 62
     2
 10
114.657283
 20
40.699546
 30
0.0
 40
0.710515
  0
LINE
  8
0
  6
CONTINUOUS
 62
     2
 10
115.034283
 20
38.796346
 30
0.0
 11
115.034283
 21
38.796346
 31
0.0
  0
LINE
  8
0
  6
CONTINUOUS
 62
     2
 10
114.750883
 20
37.431346
 30
0.0
 11
114.876567
 21
37.920553
 31
0.0
  0
LINE
  8
0
  6
CONTINUOUS
 62
     2
 10
114.729994
 20
37.330963
 30
0.0
 11
114.750883
 21
37.431346
 31
0.0
  0
LINE
  8
0
  6
CONTINUOUS
 62
     2
 10
114.657283
 20
36.981546
 30
0.0
 11
114.657283
 21
36.981546
 31
0.0
  0
LINE
  8
0
  6
CONTINUOUS
 62
     2
 10
114.564241
 20
37.431254
 30
0.0
 11
114.584491
 21
37.333942
 31
0.0
  0
LINE
  8
0
  6
CONTINUOUS
 62
     2
 10
114.437999
 20
37.920553
 30
0.0
 11
114.563683
 21
37.431346
 31
0.0
  0
LINE
  8
0
  6
CONTINUOUS
 62
     2
 10
114.280283
 20
38.796346
 30
0.0
 11
114.280283
 21
38.796346
 31
0.0
  0
LINE
  8
0
  6
CONTINUOUS
 62
     2
 10
120.182488
 20
38.738896
 30
0.0
 11
120.182488
 21
38.738896
 31
0.0
  0
LINE
  8
0
  6
CONTINUOUS
 62
     2
 10
120.340204
 20
37.863103
 30
0.0
 11
120.465888
 21
37.373896
 31
0.0
  0
LINE
  8
0
  6
CONTINUOUS
 62
     2
 10
120.466445
 20
37.373803
 30
0.0
 11
120.486695
 21
37.276492
 31
0.0
  0
LINE
  8
0
  6
CONTINUOUS
 62
     2
 10
120.559488
 20
36.924096
 30
0.0
 11
120.559488
 21
36.924096
 31
0.0
  0
LINE
  8
0
  6
CONTINUOUS
 62
     2
 10
120.632198
 20
37.273513
 30
0.0
 11
120.653088
 21
37.373896
 31
0.0
  0
LINE
  8
0
  6
CONTINUOUS
 62
     2
 10
120.653088
 20
37.373896
 30
0.0
 11
120.778771
 21
37.863103
 31
0.0
  0
LINE
  8
0
  6
CONTINUOUS
 62
     2
 10
120.936488
 20
38.738896
 30
0.0
 11
120.936488
 21
38.738896
 31
0.0
  0
CIRCLE
  8
0
  6
CONTINUOUS
 62
     2
 10
120.559488
 20
40.642096
 30
0.0
 40
0.710515
  0
LINE
  8
0
  6
CONTINUOUS
 62
     2
 10
120.559488
 20
39.931581
 30
0.0
 11
120.559488
 21
36.43322
 31
0.0
  0
LINE
  8
0
  6
CONTINUOUS
 62
     2
 10
120.299488
 20
39.980861
 30
0.0
 11
120.299488
 21
38.259506
 31
0.0
  0
LINE
  8
0
  6
CONTINUOUS
 62
     2
 10
120.819488
 20
39.980861
 30
0.0
 11
120.819488
 21
38.259506
 31
0.0
  0
ARC
  8
0
  6
CONTINUOUS
 62
     2
 10
120.364488
 20
38.06589
 30
0.0
 40
0.065
 50
180.0
 51
191.72906
  0
ARC
  8
0
  6
CONTINUOUS
 62
     2
 10
120.364488
 20
38.06589
 30
0.0
 40
0.065
 50
180.0
 51
191.72906
  0
ARC
  8
0
  6
CONTINUOUS
 62
     2
 10
120.689488
 20
38.072566
 30
0.0
 40
0.13
 50
348.27094
 51
0.0
  0
ARC
  8
0
  6
CONTINUOUS
 62
     2
 10
122.249488
 20
38.259506
 30
0.0
 40
1.95
 50
180.0
 51
191.72906
  0
ARC
  8
0
  6
CONTINUOUS
 62
     2
 10
118.869488
 20
38.259506
 30
0.0
 40
1.95
 50
348.27094
 51
0.0
  0
ARC
  8
0
  6
CONTINUOUS
 62
     2
 10
120.55997
 20
37.300555
 30
0.0
 40
0.077125
 50
185.330301
 51
357.0158
  0
LINE
  8
0
  6
CONTINUOUS
 62
     2
 10
120.936488
 20
38.738896
 30
0.0
 11
120.936488
 21
38.738896
 31
0.0
  0
LINE
  8
0
  6
CONTINUOUS
 62
     2
 10
120.559488
 20
36.924096
 30
0.0
 11
120.559488
 21
36.924096
 31
0.0
  0
LINE
  8
0
  6
CONTINUOUS
 62
     2
 10
120.182488
 20
38.738896
 30
0.0
 11
120.182488
 21
38.738896
 31
0.0
  0
LINE
  8
0
  6
CONTINUOUS
 62
     7
 10
100.623539
 20
35.955995
 30
0.0
 11
99.544564
 21
35.601084
 31
0.0
  0
LINE
  8
0
  6
CONTINUOUS
 62
     7
 10
99.544564
 20
35.601084
 30
0.0
 11
102.071764
 21
34.878284
 31
0.0
  0
LINE
  8
0
  6
CONTINUOUS
 62
     7
 10
102.071764
 20
34.878284
 30
0.0
 11
100.623539
 21
34.513104
 31
0.0
  0
LINE
  8
0
  6
CONTINUOUS
 62
     2
 10
33.704946
 20
65.888484
 30
0.0
 11
29.349739
 21
67.208336
 31
0.0
  0
LINE
  8
0
  6
CONTINUOUS
 62
     2
 10
32.921637
 20
102.227808
 30
0.0
 11
29.349739
 21
101.140823
 31
0.0
  0
LINE
  8
0
  6
CONTINUOUS
 62
     2
 10
29.349739
 20
101.141884
 30
0.0
 11
29.349739
 21
67.208336
 31
0.0
  0
LINE
  8
0
  6
CONTINUOUS
 62
     2
 10
34.047166
 20
65.888484
 30
0.0
 11
34.047166
 21
102.368811
 31
0.0
  0
LINE
  8
0
  6
CONTINUOUS
 62
     2
 10
32.777328
 20
66.146663
 30
0.0
 11
32.777328
 21
102.368811
 31
0.0
  0
LINE
  8
0
  6
CONTINUOUS
 62
     2
 10
93.096417
 20
32.319287
 30
0.0
 11
93.096417
 21
32.319287
 31
0.0
  0
LINE
  8
0
  6
CONTINUOUS
 62
     2
 10
93.473417
 20
30.504487
 30
0.0
 11
93.473417
 21
30.504487
 31
0.0
  0
LINE
  8
0
  6
CONTINUOUS
 62
     2
 10
93.850417
 20
32.319287
 30
0.0
 11
93.850417
 21
32.319287
 31
0.0
  0
ARC
  8
0
  6
CONTINUOUS
 62
     2
 10
93.473899
 20
30.880946
 30
0.0
 40
0.077125
 50
185.330301
 51
357.0158
  0
ARC
  8
0
  6
CONTINUOUS
 62
     2
 10
91.783417
 20
31.839897
 30
0.0
 40
1.95
 50
348.27094
 51
0.0
  0
ARC
  8
0
  6
CONTINUOUS
 62
     2
 10
95.163417
 20
31.839897
 30
0.0
 40
1.95
 50
180.0
 51
191.72906
  0
ARC
  8
0
  6
CONTINUOUS
 62
     2
 10
93.603417
 20
31.652957
 30
0.0
 40
0.13
 50
348.27094
 51
0.0
  0
ARC
  8
0
  6
CONTINUOUS
 62
     2
 10
93.278417
 20
31.64628
 30
0.0
 40
0.065
 50
180.0
 51
191.72906
  0
ARC
  8
0
  6
CONTINUOUS
 62
     2
 10
93.278417
 20
31.64628
 30
0.0
 40
0.065
 50
180.0
 51
191.72906
  0
LINE
  8
0
  6
CONTINUOUS
 62
     2
 10
93.733417
 20
33.561252
 30
0.0
 11
93.733417
 21
31.839897
 31
0.0
  0
LINE
  8
0
  6
CONTINUOUS
 62
     2
 10
93.213417
 20
33.561252
 30
0.0
 11
93.213417
 21
31.839897
 31
0.0
  0
LINE
  8
0
  6
CONTINUOUS
 62
     2
 10
93.473417
 20
33.511972
 30
0.0
 11
93.473417
 21
30.013611
 31
0.0
  0
CIRCLE
  8
0
  6
CONTINUOUS
 62
     2
 10
93.473417
 20
34.222487
 30
0.0
 40
0.710515
  0
LINE
  8
0
  6
CONTINUOUS
 62
     2
 10
93.850417
 20
32.319287
 30
0.0
 11
93.850417
 21
32.319287
 31
0.0
  0
LINE
  8
0
  6
CONTINUOUS
 62
     2
 10
93.567017
 20
30.954287
 30
0.0
 11
93.692701
 21
31.443493
 31
0.0
  0
LINE
  8
0
  6
CONTINUOUS
 62
     2
 10
93.546128
 20
30.853903
 30
0.0
 11
93.567017
 21
30.954287
 31
0.0
  0
LINE
  8
0
  6
CONTINUOUS
 62
     2
 10
93.473417
 20
30.504487
 30
0.0
 11
93.473417
 21
30.504487
 31
0.0
  0
LINE
  8
0
  6
CONTINUOUS
 62
     2
 10
93.380375
 20
30.954194
 30
0.0
 11
93.400624
 21
30.856883
 31
0.0
  0
LINE
  8
0
  6
CONTINUOUS
 62
     2
 10
93.254133
 20
31.443493
 30
0.0
 11
93.379817
 21
30.954287
 31
0.0
  0
LINE
  8
0
  6
CONTINUOUS
 62
     2
 10
93.096417
 20
32.319287
 30
0.0
 11
93.096417
 21
32.319287
 31
0.0
  0
LINE
  8
0
  6
CONTINUOUS
 62
     2
 10
87.194213
 20
32.376737
 30
0.0
 11
87.194213
 21
32.376737
 31
0.0
  0
LINE
  8
0
  6
CONTINUOUS
 62
     2
 10
87.351929
 20
31.500943
 30
0.0
 11
87.477613
 21
31.011737
 31
0.0
  0
LINE
  8
0
  6
CONTINUOUS
 62
     2
 10
87.47817
 20
31.011644
 30
0.0
 11
87.49842
 21
30.914333
 31
0.0
  0
LINE
  8
0
  6
CONTINUOUS
 62
     2
 10
87.571213
 20
30.561937
 30
0.0
 11
87.571213
 21
30.561937
 31
0.0
  0
LINE
  8
0
  6
CONTINUOUS
 62
     2
 10
87.643924
 20
30.911354
 30
0.0
 11
87.664813
 21
31.011737
 31
0.0
  0
LINE
  8
0
  6
CONTINUOUS
 62
     2
 10
87.664813
 20
31.011737
 30
0.0
 11
87.790496
 21
31.500943
 31
0.0
  0
LINE
  8
0
  6
CONTINUOUS
 62
     2
 10
87.948213
 20
32.376737
 30
0.0
 11
87.948213
 21
32.376737
 31
0.0
  0
CIRCLE
  8
0
  6
CONTINUOUS
 62
     2
 10
87.571213
 20
34.279937
 30
0.0
 40
0.710515
  0
LINE
  8
0
  6
CONTINUOUS
 62
     2
 10
87.571213
 20
33.569422
 30
0.0
 11
87.571213
 21
30.071061
 31
0.0
  0
LINE
  8
0
  6
CONTINUOUS
 62
     2
 10
87.311213
 20
33.618702
 30
0.0
 11
87.311213
 21
31.897347
 31
0.0
  0
LINE
  8
0
  6
CONTINUOUS
 62
     2
 10
87.831213
 20
33.618702
 30
0.0
 11
87.831213
 21
31.897347
 31
0.0
  0
ARC
  8
0
  6
CONTINUOUS
 62
     2
 10
87.376213
 20
31.70373
 30
0.0
 40
0.065
 50
180.0
 51
191.72906
  0
ARC
  8
0
  6
CONTINUOUS
 62
     2
 10
87.376213
 20
31.70373
 30
0.0
 40
0.065
 50
180.0
 51
191.72906
  0
ARC
  8
0
  6
CONTINUOUS
 62
     2
 10
87.701213
 20
31.710407
 30
0.0
 40
0.13
 50
348.27094
 51
0.0
  0
ARC
  8
0
  6
CONTINUOUS
 62
     2
 10
89.261213
 20
31.897347
 30
0.0
 40
1.95
 50
180.0
 51
191.72906
  0
ARC
  8
0
  6
CONTINUOUS
 62
     2
 10
85.881213
 20
31.897347
 30
0.0
 40
1.95
 50
348.27094
 51
0.0
  0
ARC
  8
0
  6
CONTINUOUS
 62
     2
 10
87.571695
 20
30.938396
 30
0.0
 40
0.077125
 50
185.330301
 51
357.0158
  0
LINE
  8
0
  6
CONTINUOUS
 62
     2
 10
87.948213
 20
32.376737
 30
0.0
 11
87.948213
 21
32.376737
 31
0.0
  0
LINE
  8
0
  6
CONTINUOUS
 62
     2
 10
87.571213
 20
30.561937
 30
0.0
 11
87.571213
 21
30.561937
 31
0.0
  0
LINE
  8
0
  6
CONTINUOUS
 62
     2
 10
87.194213
 20
32.376737
 30
0.0
 11
87.194213
 21
32.376737
 31
0.0
  0
LINE
  8
0
  6
CONTINUOUS
 62
     2
 10
81.147067
 20
32.348012
 30
0.0
 11
81.147067
 21
32.348012
 31
0.0
  0
LINE
  8
0
  6
CONTINUOUS
 62
     2
 10
81.304783
 20
31.472218
 30
0.0
 11
81.430467
 21
30.983012
 31
0.0
  0
LINE
  8
0
  6
CONTINUOUS
 62
     2
 10
81.431025
 20
30.982919
 30
0.0
 11
81.451275
 21
30.885608
 31
0.0
  0
LINE
  8
0
  6
CONTINUOUS
 62
     2
 10
81.524067
 20
30.533212
 30
0.0
 11
81.524067
 21
30.533212
 31
0.0
  0
LINE
  8
0
  6
CONTINUOUS
 62
     2
 10
81.596778
 20
30.882628
 30
0.0
 11
81.617667
 21
30.983012
 31
0.0
  0
LINE
  8
0
  6
CONTINUOUS
 62
     2
 10
81.617667
 20
30.983012
 30
0.0
 11
81.743351
 21
31.472218
 31
0.0
  0
LINE
  8
0
  6
CONTINUOUS
 62
     2
 10
81.901067
 20
32.348012
 30
0.0
 11
81.901067
 21
32.348012
 31
0.0
  0
CIRCLE
  8
0
  6
CONTINUOUS
 62
     2
 10
81.524067
 20
34.251212
 30
0.0
 40
0.710515
  0
LINE
  8
0
  6
CONTINUOUS
 62
     2
 10
81.524067
 20
33.540697
 30
0.0
 11
81.524067
 21
30.042336
 31
0.0
  0
LINE
  8
0
  6
CONTINUOUS
 62
     2
 10
81.264067
 20
33.589977
 30
0.0
 11
81.264067
 21
31.868622
 31
0.0
  0
LINE
  8
0
  6
CONTINUOUS
 62
     2
 10
81.784067
 20
33.589977
 30
0.0
 11
81.784067
 21
31.868622
 31
0.0
  0
ARC
  8
0
  6
CONTINUOUS
 62
     2
 10
81.329067
 20
31.675005
 30
0.0
 40
0.065
 50
180.0
 51
191.72906
  0
ARC
  8
0
  6
CONTINUOUS
 62
     2
 10
81.329067
 20
31.675005
 30
0.0
 40
0.065
 50
180.0
 51
191.72906
  0
ARC
  8
0
  6
CONTINUOUS
 62
     2
 10
81.654067
 20
31.681682
 30
0.0
 40
0.13
 50
348.27094
 51
0.0
  0
ARC
  8
0
  6
CONTINUOUS
 62
     2
 10
83.214067
 20
31.868622
 30
0.0
 40
1.95
 50
180.0
 51
191.72906
  0
ARC
  8
0
  6
CONTINUOUS
 62
     2
 10
79.834067
 20
31.868622
 30
0.0
 40
1.95
 50
348.27094
 51
0.0
  0
ARC
  8
0
  6
CONTINUOUS
 62
     2
 10
81.52455
 20
30.909671
 30
0.0
 40
0.077125
 50
185.330301
 51
357.0158
  0
LINE
  8
0
  6
CONTINUOUS
 62
     2
 10
81.901067
 20
32.348012
 30
0.0
 11
81.901067
 21
32.348012
 31
0.0
  0
LINE
  8
0
  6
CONTINUOUS
 62
     2
 10
81.524067
 20
30.533212
 30
0.0
 11
81.524067
 21
30.533212
 31
0.0
  0
LINE
  8
0
  6
CONTINUOUS
 62
     2
 10
81.147067
 20
32.348012
 30
0.0
 11
81.147067
 21
32.348012
 31
0.0
  0
LINE
  8
0
  6
CONTINUOUS
 62
     2
 10
75.118088
 20
32.348012
 30
0.0
 11
75.118088
 21
32.348012
 31
0.0
  0
LINE
  8
0
  6
CONTINUOUS
 62
     2
 10
75.495088
 20
30.533212
 30
0.0
 11
75.495088
 21
30.533212
 31
0.0
  0
LINE
  8
0
  6
CONTINUOUS
 62
     2
 10
75.872088
 20
32.348012
 30
0.0
 11
75.872088
 21
32.348012
 31
0.0
  0
ARC
  8
0
  6
CONTINUOUS
 62
     2
 10
75.495571
 20
30.909671
 30
0.0
 40
0.077125
 50
185.330301
 51
357.0158
  0
ARC
  8
0
  6
CONTINUOUS
 62
     2
 10
73.805088
 20
31.868622
 30
0.0
 40
1.95
 50
348.27094
 51
0.0
  0
ARC
  8
0
  6
CONTINUOUS
 62
     2
 10
77.185088
 20
31.868622
 30
0.0
 40
1.95
 50
180.0
 51
191.72906
  0
ARC
  8
0
  6
CONTINUOUS
 62
     2
 10
75.625088
 20
31.681682
 30
0.0
 40
0.13
 50
348.27094
 51
0.0
  0
ARC
  8
0
  6
CONTINUOUS
 62
     2
 10
75.300088
 20
31.675005
 30
0.0
 40
0.065
 50
180.0
 51
191.72906
  0
ARC
  8
0
  6
CONTINUOUS
 62
     2
 10
75.300088
 20
31.675005
 30
0.0
 40
0.065
 50
180.0
 51
191.72906
  0
LINE
  8
0
  6
CONTINUOUS
 62
     2
 10
75.755088
 20
33.589977
 30
0.0
 11
75.755088
 21
31.868622
 31
0.0
  0
LINE
  8
0
  6
CONTINUOUS
 62
     2
 10
75.235088
 20
33.589977
 30
0.0
 11
75.235088
 21
31.868622
 31
0.0
  0
LINE
  8
0
  6
CONTINUOUS
 62
     2
 10
75.495088
 20
33.540697
 30
0.0
 11
75.495088
 21
30.042336
 31
0.0
  0
CIRCLE
  8
0
  6
CONTINUOUS
 62
     2
 10
75.495088
 20
34.251212
 30
0.0
 40
0.710515
  0
LINE
  8
0
  6
CONTINUOUS
 62
     2
 10
75.872088
 20
32.348012
 30
0.0
 11
75.872088
 21
32.348012
 31
0.0
  0
LINE
  8
0
  6
CONTINUOUS
 62
     2
 10
75.588688
 20
30.983012
 30
0.0
 11
75.714372
 21
31.472218
 31
0.0
  0
LINE
  8
0
  6
CONTINUOUS
 62
     2
 10
75.567799
 20
30.882628
 30
0.0
 11
75.588688
 21
30.983012
 31
0.0
  0
LINE
  8
0
  6
CONTINUOUS
 62
     2
 10
75.495088
 20
30.533212
 30
0.0
 11
75.495088
 21
30.533212
 31
0.0
  0
LINE
  8
0
  6
CONTINUOUS
 62
     2
 10
75.402046
 20
30.982919
 30
0.0
 11
75.422296
 21
30.885608
 31
0.0
  0
LINE
  8
0
  6
CONTINUOUS
 62
     2
 10
75.275804
 20
31.472218
 30
0.0
 11
75.401488
 21
30.983012
 31
0.0
  0
LINE
  8
0
  6
CONTINUOUS
 62
     2
 10
75.118088
 20
32.348012
 30
0.0
 11
75.118088
 21
32.348012
 31
0.0
  0
LINE
  8
0
  6
CONTINUOUS
 62
     7
 10
95.342939
 20
35.962484
 30
0.0
 11
94.258739
 21
35.601084
 31
0.0
  0
LINE
  8
0
  6
CONTINUOUS
 62
     7
 10
96.785939
 20
34.878284
 30
0.0
 11
95.342939
 21
34.516884
 31
0.0
  0
LINE
  8
0
  6
CONTINUOUS
 62
     7
 10
94.258739
 20
35.601084
 30
0.0
 11
96.785939
 21
34.878284
 31
0.0
  0
LINE
  8
0
  6
CONTINUOUS
 62
     7
 10
95.342939
 20
30.194231
 30
0.0
 11
94.258739
 21
29.832831
 31
0.0
  0
LINE
  8
0
  6
CONTINUOUS
 62
     7
 10
94.258739
 20
29.832831
 30
0.0
 11
96.785939
 21
29.110031
 31
0.0
  0
LINE
  8
0
  6
CONTINUOUS
 62
     7
 10
96.785939
 20
29.110031
 30
0.0
 11
95.342939
 21
28.748631
 31
0.0
  0
LINE
  8
0
  6
CONTINUOUS
 62
     7
 10
99.544564
 20
28.484035
 30
0.0
 11
102.071764
 21
27.761235
 31
0.0
  0
LINE
  8
0
  6
CONTINUOUS
 62
     7
 10
100.623539
 20
28.838947
 30
0.0
 11
99.544564
 21
28.484035
 31
0.0
  0
LINE
  8
0
  6
CONTINUOUS
 62
     7
 10
102.071764
 20
27.761235
 30
0.0
 11
100.623539
 21
27.396056
 31
0.0
  0
LINE
  8
0
  6
BYBLOCK
 62
     0
 10
129.997039
 20
110.169084
 30
0.0
 11
144.855729
 21
110.169084
 31
0.0
  0
LINE
  8
0
  6
BYBLOCK
 62
     0
 10
130.912239
 20
58.169084
 30
0.0
 11
144.855729
 21
58.169084
 31
0.0
  0
LINE
  8
0
  6
BYBLOCK
 62
     0
 10
142.515729
 20
107.829084
 30
0.0
 11
142.515729
 21
97.573243
 31
0.0
  0
LINE
  8
0
  6
BYBLOCK
 62
     0
 10
142.515729
 20
60.509084
 30
0.0
 11
142.515729
 21
74.3628
 31
0.0
  0
SOLID
  8
0
  6
BYBLOCK
 62
     0
 10
142.905729
 20
107.829084
 30
0.0
 11
142.125729
 21
107.829084
 31
0.0
 12
142.515729
 22
110.169084
 32
0.0
 13
142.515729
 23
110.169084
 33
0.0
  0
SOLID
  8
0
  6
BYBLOCK
 62
     0
 10
142.905729
 20
60.509084
 30
0.0
 11
142.125729
 21
60.509084
 31
0.0
 12
142.515729
 22
58.169084
 32
0.0
 13
142.515729
 23
58.169084
 33
0.0
  0
TEXT
  8
0
  6
BYBLOCK
 62
     0
 10
134.938586
 20
92.893243
 30
0.0
 40
2.34
  1
VERTICAL
  7
ROMANS
  0
POINT
  8
DEFPOINTS
  6
BYBLOCK
 62
     0
 10
129.184539
 20
110.169084
 30
0.0
  0
POINT
  8
DEFPOINTS
  6
BYBLOCK
 62
     0
 10
130.099739
 20
58.169084
 30
0.0
  0
POINT
  8
DEFPOINTS
  6
BYBLOCK
 62
     0
 10
142.515729
 20
58.169084
 30
0.0
  0
TEXT
  8
0
  6
BYBLOCK
 62
     0
 10
134.938586
 20
88.755686
 30
0.0
 40
2.34
  1
DUCT SIZE
  7
ROMANS
  0
TEXT
  8
0
  6
BYBLOCK
 62
     0
 10
139.723094
 20
84.25834
 30
0.0
 40
2.34
  1
PLUS
  7
ROMANS
  0
TEXT
  8
0
  6
BYBLOCK
 62
     0
 10
137.300558
 20
79.760995
 30
0.0
 40
2.34
  1
1-3/4'
  7
ROMANS
  0
LINE
  8
0
  6
BYBLOCK
 62
     0
 10
175.915639
 20
102.361284
 30
0.0
 11
187.509081
 21
102.361284
 31
0.0
  0
LINE
  8
0
  6
BYBLOCK
 62
     0
 10
175.915639
 20
65.888484
 30
0.0
 11
187.509081
 21
65.888484
 31
0.0
  0
LINE
  8
0
  6
BYBLOCK
 62
     0
 10
185.169081
 20
100.021284
 30
0.0
 11
185.169081
 21
94.565028
 31
0.0
  0
LINE
  8
0
  6
BYBLOCK
 62
     0
 10
185.169081
 20
68.228484
 30
0.0
 11
185.169081
 21
75.745052
 31
0.0
  0
SOLID
  8
0
  6
BYBLOCK
 62
     0
 10
185.559081
 20
100.021284
 30
0.0
 11
184.779081
 21
100.021284
 31
0.0
 12
185.169081
 22
102.361284
 32
0.0
 13
185.169081
 23
102.361284
 33
0.0
  0
SOLID
  8
0
  6
BYBLOCK
 62
     0
 10
185.559081
 20
68.228484
 30
0.0
 11
184.779081
 21
68.228484
 31
0.0
 12
185.169081
 22
65.888484
 32
0.0
 13
185.169081
 23
65.888484
 33
0.0
  0
TEXT
  8
0
  6
BYBLOCK
 62
     0
 10
177.591938
 20
90.259631
 30
0.0
 40
2.34
  1
VERTICAL
  7
ROMANS
  0
POINT
  8
DEFPOINTS
  6
BYBLOCK
 62
     0
 10
175.103139
 20
102.361284
 30
0.0
  0
POINT
  8
DEFPOINTS
  6
BYBLOCK
 62
     0
 10
175.103139
 20
65.888484
 30
0.0
  0
POINT
  8
DEFPOINTS
  6
BYBLOCK
 62
     0
 10
185.169081
 20
65.888484
 30
0.0
  0
TEXT
  8
0
  6
BYBLOCK
 62
     0
 10
177.591938
 20
86.513606
 30
0.0
 40
2.34
  1
DUCT SIZE
  7
ROMANS
  0
TEXT
  8
0
  6
BYBLOCK
 62
     0
 10
177.591938
 20
82.580281
 30
0.0
 40
2.34
  1
MINUS 5/8"
  7
ROMANS
  0
LINE
  8
0
  6
BYBLOCK
 62
     0
 10
160.839539
 20
57.491784
 30
0.0
 11
160.839539
 21
48.02151
 31
0.0
  0
LINE
  8
0
  6
BYBLOCK
 62
     0
 10
162.552939
 20
57.491784
 30
0.0
 11
162.552939
 21
48.02151
 31
0.0
  0
LINE
  8
0
  6
BYBLOCK
 62
     0
 10
164.892939
 20
50.36151
 30
0.0
 11
167.232939
 21
50.36151
 31
0.0
  0
LINE
  8
0
  6
BYBLOCK
 62
     0
 10
158.499539
 20
50.36151
 30
0.0
 11
156.159539
 21
50.36151
 31
0.0
  0
SOLID
  8
0
  6
BYBLOCK
 62
     0
 10
164.892939
 20
49.97151
 30
0.0
 11
164.892939
 21
50.75151
 31
0.0
 12
162.552939
 22
50.36151
 32
0.0
 13
162.552939
 23
50.36151
 33
0.0
  0
SOLID
  8
0
  6
BYBLOCK
 62
     0
 10
158.499539
 20
49.97151
 30
0.0
 11
158.499539
 21
50.75151
 31
0.0
 12
160.839539
 22
50.36151
 32
0.0
 13
160.839539
 23
50.36151
 33
0.0
  0
TEXT
  8
0
  6
BYBLOCK
 62
     0
 10
148.705134
 20
49.277914
 30
0.0
 40
2.34
  1
1/4"
  7
ROMANS
  0
POINT
  8
DEFPOINTS
  6
BYBLOCK
 62
     0
 10
160.839539
 20
58.304284
 30
0.0
  0
POINT
  8
DEFPOINTS
  6
BYBLOCK
 62
     0
 10
162.552939
 20
58.304284
 30
0.0
  0
POINT
  8
DEFPOINTS
  6
BYBLOCK
 62
     0
 10
162.552939
 20
50.36151
 30
0.0
  0
LINE
  8
0
  6
BYBLOCK
 62
     0
 10
160.839539
 20
56.679284
 30
0.0
 11
160.839539
 21
42.473373
 31
0.0
  0
LINE
  8
0
  6
BYBLOCK
 62
     0
 10
175.103139
 20
65.075984
 30
0.0
 11
175.103139
 21
42.473373
 31
0.0
  0
LINE
  8
0
  6
BYBLOCK
 62
     0
 10
177.443139
 20
44.813373
 30
0.0
 11
179.783139
 21
44.813373
 31
0.0
  0
LINE
  8
0
  6
BYBLOCK
 62
     0
 10
158.499539
 20
44.813373
 30
0.0
 11
156.159539
 21
44.813373
 31
0.0
  0
SOLID
  8
0
  6
BYBLOCK
 62
     0
 10
177.443139
 20
44.423373
 30
0.0
 11
177.443139
 21
45.203373
 31
0.0
 12
175.103139
 22
44.813373
 32
0.0
 13
175.103139
 23
44.813373
 33
0.0
  0
SOLID
  8
0
  6
BYBLOCK
 62
     0
 10
158.499539
 20
44.423373
 30
0.0
 11
158.499539
 21
45.203373
 31
0.0
 12
160.839539
 22
44.813373
 32
0.0
 13
160.839539
 23
44.813373
 33
0.0
  0
TEXT
  8
0
  6
BYBLOCK
 62
     0
 10
161.596196
 20
43.643373
 30
0.0
 40
2.34
  1
1-3/4"
  7
ROMANS
  0
POINT
  8
DEFPOINTS
  6
BYBLOCK
 62
     0
 10
160.839539
 20
57.491784
 30
0.0
  0
POINT
  8
DEFPOINTS
  6
BYBLOCK
 62
     0
 10
175.103139
 20
65.888484
 30
0.0
  0
POINT
  8
DEFPOINTS
  6
BYBLOCK
 62
     0
 10
175.103139
 20
44.813373
 30
0.0
  0
LINE
  8
0
  6
BYBLOCK
 62
     0
 10
27.679239
 20
102.361284
 30
0.0
 11
9.272291
 21
102.361284
 31
0.0
  0
LINE
  8
0
  6
BYBLOCK
 62
     0
 10
27.679239
 20
65.888484
 30
0.0
 11
6.664889
 21
65.888484
 31
0.0
  0
TEXT
  8
0
  6
BYBLOCK
 62
     0
 10
5.494934
 20
86.921542
 30
0.0
 40
2.34
  1
VERTICAL
  7
ROMANS
  0
TEXT
  8
0
  6
BYBLOCK
 62
     0
 10
5.494934
 20
83.175518
 30
0.0
 40
2.34
  1
DUCT SIZE
  7
ROMANS
  0
TEXT
  8
0
  6
BYBLOCK
 62
     0
 10
5.494934
 20
79.242193
 30
0.0
 40
2.34
  1
MINUS 5/8"
  7
ROMANS
  0
POINT
  8
DEFPOINTS
  6
BYBLOCK
 62
     0
 10
12.701178
 20
65.888484
 30
0.0
  0
SOLID
  8
0
  6
BYBLOCK
 62
     0
 10
13.091178
 20
68.228484
 30
0.0
 11
12.311178
 21
68.228484
 31
0.0
 12
12.701178
 22
65.888484
 32
0.0
 13
12.701178
 23
65.888484
 33
0.0
  0
SOLID
  8
0
  6
BYBLOCK
 62
     0
 10
13.091178
 20
100.021284
 30
0.0
 11
12.311178
 21
100.021284
 31
0.0
 12
12.701178
 22
102.361284
 32
0.0
 13
12.701178
 23
102.361284
 33
0.0
  0
LINE
  8
0
  6
BYBLOCK
 62
     0
 10
12.701178
 20
68.228484
 30
0.0
 11
12.701178
 21
74.680504
 31
0.0
  0
LINE
  8
0
  6
BYBLOCK
 62
     0
 10
12.701178
 20
100.021284
 30
0.0
 11
12.701178
 21
92.456567
 31
0.0
  0
TEXT
  8
DIM
  6
CONTINUOUS
 62
     7
 10
218.858149
 20
66.490034
 30
0.0
 40
2.6
  1
STANDARD FRAME SIZE
  7
ROMANS
  0
TEXT
  8
DIM
  6
CONTINUOUS
 62
     7
 10
177.009309
 20
115.639684
 30
0.0
 40
2.6
  1
880V
  7
ROMANS
  0
TEXT
  8
DIM
  6
CONTINUOUS
 62
     7
 10
23.457241
 20
115.639684
 30
0.0
 40
2.6
  1
880V
  7
ROMANS
  0
LINE
  8
0
  6
CONTINUOUS
 62
     7
 10
14.32827
 20
114.277084
 30
0.0
 11
14.32827
 21
118.611284
 31
0.0
  0
LINE
  8
0
  6
CONTINUOUS
 62
     7
 10
18.66247
 20
114.277084
 30
0.0
 11
14.32827
 21
114.277084
 31
0.0
  0
LINE
  8
0
  6
CONTINUOUS
 62
     7
 10
18.66247
 20
118.611284
 30
0.0
 11
18.66247
 21
114.277084
 31
0.0
  0
LINE
  8
0
  6
CONTINUOUS
 62
     7
 10
14.32827
 20
118.611284
 30
0.0
 11
18.66247
 21
118.611284
 31
0.0
  0
TEXT
  8
DIM
  6
CONTINUOUS
 62
     7
 10
14.234769
 20
32.631621
 30
0.0
 40
2.6
  1
880-H-OBD
  7
ROMANS
  0
TEXT
  8
DIM
  6
CONTINUOUS
 62
     7
 10
154.384488
 20
34.041966
 30
0.0
 40
2.6
  1
880-V-OBD
  7
ROMANS
  0
LINE
  8
0
  6
BYBLOCK
 62
     0
 10
244.107691
 20
91.269733
 30
0.0
 11
244.107691
 21
108.340121
 31
0.0
  0
LINE
  8
0
  6
BYBLOCK
 62
     0
 10
242.474964
 20
106.702121
 30
0.0
 11
240.836964
 21
106.702121
 31
0.0
  0
SOLID
  8
0
  6
BYBLOCK
 62
     0
 10
242.346275
 20
106.429121
 30
0.0
 11
242.346275
 21
106.975121
 31
0.0
 12
243.984275
 22
106.702121
 32
0.0
 13
243.984275
 23
106.702121
 33
0.0
  0
TEXT
  8
0
  6
BYBLOCK
 62
     0
 10
226.606922
 20
105.883121
 30
0.0
 40
1.638
  1
DUCT SIZE
  7
ROMANS
  0
POINT
  8
DEFPOINTS
  6
BYBLOCK
 62
     0
 10
244.107691
 20
106.702121
 30
0.0
  0
LINE
  8
0
  6
BYBLOCK
 62
     0
 10
73.042739
 20
18.735534
 30
0.0
 11
73.042739
 21
7.958369
 31
0.0
  0
LINE
  8
0
  6
BYBLOCK
 62
     0
 10
122.921139
 20
18.735534
 30
0.0
 11
122.921139
 21
7.958369
 31
0.0
  0
LINE
  8
0
  6
BYBLOCK
 62
     0
 10
124.559139
 20
9.596369
 30
0.0
 11
126.197139
 21
9.596369
 31
0.0
  0
LINE
  8
0
  6
BYBLOCK
 62
     0
 10
71.404739
 20
9.596369
 30
0.0
 11
69.766739
 21
9.596369
 31
0.0
  0
SOLID
  8
0
  6
BYBLOCK
 62
     0
 10
124.559139
 20
9.323369
 30
0.0
 11
124.559139
 21
9.869369
 31
0.0
 12
122.921139
 22
9.596369
 32
0.0
 13
122.921139
 23
9.596369
 33
0.0
  0
SOLID
  8
0
  6
BYBLOCK
 62
     0
 10
71.404739
 20
9.323369
 30
0.0
 11
71.404739
 21
9.869369
 31
0.0
 12
73.042739
 22
9.596369
 32
0.0
 13
73.042739
 23
9.596369
 33
0.0
  0
TEXT
  8
0
  6
BYBLOCK
 62
     0
 10
74.719884
 20
8.035572
 30
0.0
 40
1.638
  1
HORIZONTAL DUCT SIZE MINUS 1/4"
  7
ROMANS
  0
POINT
  8
DEFPOINTS
  6
BYBLOCK
 62
     0
 10
73.042739
 20
19.304284
 30
0.0
  0
POINT
  8
DEFPOINTS
  6
BYBLOCK
 62
     0
 10
122.921139
 20
19.304284
 30
0.0
  0
POINT
  8
DEFPOINTS
  6
BYBLOCK
 62
     0
 10
122.921139
 20
9.596369
 30
0.0
  0
LINE
  8
0
  6
CONTINUOUS
 62
     5
 39
0.52
 10
232.776891
 20
77.358433
 30
0.0
 11
232.776891
 21
91.577833
 31
0.0
  0
LINE
  8
0
  6
CONTINUOUS
 62
     5
 39
0.52
 10
233.411291
 20
92.209633
 30
0.0
 11
243.475891
 21
92.209633
 31
0.0
  0
LINE
  8
0
  6
CONTINUOUS
 62
     5
 39
0.52
 10
243.475891
 20
92.209633
 30
0.0
 11
244.107691
 21
91.577833
 31
0.0
  0
LINE
  8
0
  6
CONTINUOUS
 62
     5
 39
0.52
 10
244.107691
 20
91.577833
 30
0.0
 11
244.107691
 21
90.132233
 31
0.0
  0
LINE
  8
0
  6
CONTINUOUS
 62
     5
 39
0.52
 10
237.786187
 20
92.209633
 30
0.0
 11
238.151091
 21
90.810833
 31
0.0
  0
LINE
  8
0
  6
CONTINUOUS
 62
     5
 39
0.52
 10
238.151091
 20
90.810833
 30
0.0
 11
240.272691
 21
90.810833
 31
0.0
  0
LINE
  8
0
  6
CONTINUOUS
 62
     5
 39
0.52
 10
240.272691
 20
90.810833
 30
0.0
 11
240.617323
 21
92.209633
 31
0.0
  0
LINE
  8
0
  6
BYBLOCK
 62
     0
 10
64.754589
 20
41.695484
 30
0.0
 11
58.158789
 21
41.695484
 31
0.0
  0
LINE
  8
0
  6
BYBLOCK
 62
     0
 10
72.338789
 20
29.630979
 30
0.0
 11
58.158789
 21
29.630979
 31
0.0
  0
LINE
  8
0
  6
BYBLOCK
 62
     0
 10
59.796789
 20
40.057484
 30
0.0
 11
59.796789
 21
38.120231
 31
0.0
  0
LINE
  8
0
  6
BYBLOCK
 62
     0
 10
59.796789
 20
31.268979
 30
0.0
 11
59.796789
 21
33.206231
 31
0.0
  0
SOLID
  8
0
  6
BYBLOCK
 62
     0
 10
60.069789
 20
40.057484
 30
0.0
 11
59.523789
 21
40.057484
 31
0.0
 12
59.796789
 22
41.695484
 32
0.0
 13
59.796789
 23
41.695484
 33
0.0
  0
SOLID
  8
0
  6
BYBLOCK
 62
     0
 10
60.069789
 20
31.268979
 30
0.0
 11
59.523789
 21
31.268979
 31
0.0
 12
59.796789
 22
29.630979
 32
0.0
 13
59.796789
 23
29.630979
 33
0.0
  0
TEXT
  8
0
  6
BYBLOCK
 62
     0
 10
55.506789
 20
34.844231
 30
0.0
 40
1.638
  1
1-3/4"
  7
ROMANS
  0
POINT
  8
DEFPOINTS
  6
BYBLOCK
 62
     0
 10
65.323339
 20
41.695484
 30
0.0
  0
POINT
  8
DEFPOINTS
  6
BYBLOCK
 62
     0
 10
72.907539
 20
29.630979
 30
0.0
  0
POINT
  8
DEFPOINTS
  6
BYBLOCK
 62
     0
 10
59.796789
 20
29.630979
 30
0.0
  0
LINE
  8
0
  6
BYBLOCK
 62
     0
 10
131.570689
 20
41.695484
 30
0.0
 11
136.603595
 21
41.695484
 31
0.0
  0
LINE
  8
0
  6
BYBLOCK
 62
     0
 10
123.489889
 20
19.304284
 30
0.0
 11
136.603595
 21
19.304284
 31
0.0
  0
LINE
  8
0
  6
BYBLOCK
 62
     0
 10
134.965595
 20
40.057484
 30
0.0
 11
134.965595
 21
32.956884
 31
0.0
  0
LINE
  8
0
  6
BYBLOCK
 62
     0
 10
134.965595
 20
20.942284
 30
0.0
 11
134.965595
 21
28.042884
 31
0.0
  0
SOLID
  8
0
  6
BYBLOCK
 62
     0
 10
135.238595
 20
40.057484
 30
0.0
 11
134.692595
 21
40.057484
 31
0.0
 12
134.965595
 22
41.695484
 32
0.0
 13
134.965595
 23
41.695484
 33
0.0
  0
SOLID
  8
0
  6
BYBLOCK
 62
     0
 10
135.238595
 20
20.942284
 30
0.0
 11
134.692595
 21
20.942284
 31
0.0
 12
134.965595
 22
19.304284
 32
0.0
 13
134.965595
 23
19.304284
 33
0.0
  0
TEXT
  8
0
  6
BYBLOCK
 62
     0
 10
133.990595
 20
29.680884
 30
0.0
 40
1.638
  1
3"
  7
ROMANS
  0
POINT
  8
DEFPOINTS
  6
BYBLOCK
 62
     0
 10
131.001939
 20
41.695484
 30
0.0
  0
POINT
  8
DEFPOINTS
  6
BYBLOCK
 62
     0
 10
122.921139
 20
19.304284
 30
0.0
  0
POINT
  8
DEFPOINTS
  6
BYBLOCK
 62
     0
 10
134.965595
 20
19.304284
 30
0.0
  0
LINE
  8
0
  6
BYBLOCK
 62
     0
 10
239.211891
 20
91.379583
 30
0.0
 11
239.211891
 21
98.440141
 31
0.0
  0
LINE
  8
0
  6
BYBLOCK
 62
     0
 10
244.107691
 20
92.146583
 30
0.0
 11
244.107691
 21
98.440141
 31
0.0
  0
LINE
  8
0
  6
BYBLOCK
 62
     0
 10
245.745691
 20
96.802141
 30
0.0
 11
247.383691
 21
96.802141
 31
0.0
  0
LINE
  8
0
  6
BYBLOCK
 62
     0
 10
237.573891
 20
96.802141
 30
0.0
 11
235.935891
 21
96.802141
 31
0.0
  0
SOLID
  8
0
  6
BYBLOCK
 62
     0
 10
245.745691
 20
96.529141
 30
0.0
 11
245.745691
 21
97.075141
 31
0.0
 12
244.107691
 22
96.802141
 32
0.0
 13
244.107691
 23
96.802141
 33
0.0
  0
SOLID
  8
0
  6
BYBLOCK
 62
     0
 10
237.573891
 20
96.529141
 30
0.0
 11
237.573891
 21
97.075141
 31
0.0
 12
239.211891
 22
96.802141
 32
0.0
 13
239.211891
 23
96.802141
 33
0.0
  0
TEXT
  8
0
  6
BYBLOCK
 62
     0
 10
249.021691
 20
95.983141
 30
0.0
 40
1.638
  1
9/16"
  7
ROMANS
  0
POINT
  8
DEFPOINTS
  6
BYBLOCK
 62
     0
 10
244.107691
 20
91.577833
 30
0.0
  0
POINT
  8
DEFPOINTS
  6
BYBLOCK
 62
     0
 10
244.107691
 20
96.802141
 30
0.0
  0
LINE
  8
0
  6
BYBLOCK
 62
     0
 10
231.457358
 20
92.209633
 30
0.0
 11
224.818546
 21
92.209633
 31
0.0
  0
LINE
  8
0
  6
BYBLOCK
 62
     0
 10
230.822958
 20
77.358433
 30
0.0
 11
224.818546
 21
77.358433
 31
0.0
  0
LINE
  8
0
  6
BYBLOCK
 62
     0
 10
226.456546
 20
90.571633
 30
0.0
 11
226.456546
 21
87.241033
 31
0.0
  0
LINE
  8
0
  6
BYBLOCK
 62
     0
 10
226.456546
 20
78.996433
 30
0.0
 11
226.456546
 21
82.327033
 31
0.0
  0
SOLID
  8
0
  6
BYBLOCK
 62
     0
 10
226.729546
 20
90.571633
 30
0.0
 11
226.183546
 21
90.571633
 31
0.0
 12
226.456546
 22
92.209633
 32
0.0
 13
226.456546
 23
92.209633
 33
0.0
  0
SOLID
  8
0
  6
BYBLOCK
 62
     0
 10
226.729546
 20
78.996433
 30
0.0
 11
226.183546
 21
78.996433
 31
0.0
 12
226.456546
 22
77.358433
 32
0.0
 13
226.456546
 23
77.358433
 33
0.0
  0
TEXT
  8
0
  6
BYBLOCK
 62
     0
 10
222.166546
 20
83.965033
 30
0.0
 40
1.638
  1
1-3/4"
  7
ROMANS
  0
POINT
  8
DEFPOINTS
  6
BYBLOCK
 62
     0
 10
226.456546
 20
77.358433
 30
0.0
  0
LINE
  8
0
  6
BYBLOCK
 62
     0
 10
244.044641
 20
92.209633
 30
0.0
 11
249.056408
 21
92.209633
 31
0.0
  0
LINE
  8
0
  6
BYBLOCK
 62
     0
 10
244.676441
 20
90.132233
 30
0.0
 11
249.056408
 21
90.132233
 31
0.0
  0
LINE
  8
0
  6
BYBLOCK
 62
     0
 10
247.418408
 20
88.494233
 30
0.0
 11
247.418408
 21
86.856233
 31
0.0
  0
LINE
  8
0
  6
BYBLOCK
 62
     0
 10
247.418408
 20
93.847633
 30
0.0
 11
247.418408
 21
95.485633
 31
0.0
  0
LINE
  8
0
  6
BYBLOCK
 62
     0
 10
247.418408
 20
86.856233
 30
0.0
 11
245.780408
 21
86.856233
 31
0.0
  0
SOLID
  8
0
  6
BYBLOCK
 62
     0
 10
247.691408
 20
88.494233
 30
0.0
 11
247.145408
 21
88.494233
 31
0.0
 12
247.418408
 22
90.132233
 32
0.0
 13
247.418408
 23
90.132233
 33
0.0
  0
SOLID
  8
0
  6
BYBLOCK
 62
     0
 10
247.691408
 20
93.847633
 30
0.0
 11
247.145408
 21
93.847633
 31
0.0
 12
247.418408
 22
92.209633
 32
0.0
 13
247.418408
 23
92.209633
 33
0.0
  0
TEXT
  8
0
  6
BYBLOCK
 62
     0
 10
239.306408
 20
86.037233
 30
0.0
 40
1.638
  1
1/4'
  7
ROMANS
  0
POINT
  8
DEFPOINTS
  6
BYBLOCK
 62
     0
 10
247.418408
 20
90.132233
 30
0.0
  0
LINE
  8
0
  6
BYBLOCK
 62
     0
 10
232.776891
 20
95.672502
 30
0.0
 11
232.776891
 21
102.805212
 31
0.0
  0
LINE
  8
0
  6
BYBLOCK
 62
     0
 10
244.107691
 20
94.226902
 30
0.0
 11
244.107691
 21
102.805212
 31
0.0
  0
LINE
  8
0
  6
BYBLOCK
 62
     0
 10
245.745691
 20
101.167212
 30
0.0
 11
247.383691
 21
101.167212
 31
0.0
  0
LINE
  8
0
  6
BYBLOCK
 62
     0
 10
231.138891
 20
101.167212
 30
0.0
 11
229.500891
 21
101.167212
 31
0.0
  0
SOLID
  8
0
  6
BYBLOCK
 62
     0
 10
245.745691
 20
100.894212
 30
0.0
 11
245.745691
 21
101.440212
 31
0.0
 12
244.107691
 22
101.167212
 32
0.0
 13
244.107691
 23
101.167212
 33
0.0
  0
SOLID
  8
0
  6
BYBLOCK
 62
     0
 10
231.138891
 20
100.894212
 30
0.0
 11
231.138891
 21
101.440212
 31
0.0
 12
232.776891
 22
101.167212
 32
0.0
 13
232.776891
 23
101.167212
 33
0.0
  0
TEXT
  8
0
  6
BYBLOCK
 62
     0
 10
249.021691
 20
100.348212
 30
0.0
 40
1.638
  1
1-1/4"
  7
ROMANS
  0
POINT
  8
DEFPOINTS
  6
BYBLOCK
 62
     0
 10
244.107691
 20
93.658152
 30
0.0
  0
POINT
  8
DEFPOINTS
  6
BYBLOCK
 62
     0
 10
244.107691
 20
101.167212
 30
0.0
  0
LINE
  8
0
  6
BYBLOCK
 62
     0
 10
64.738339
 20
57.356584
 30
0.0
 11
64.738339
 21
47.279712
 31
0.0
  0
LINE
  8
0
  6
BYBLOCK
 62
     0
 10
130.099739
 20
57.356584
 30
0.0
 11
130.099739
 21
47.279712
 31
0.0
  0
LINE
  8
0
  6
BYBLOCK
 62
     0
 10
67.078339
 20
49.619712
 30
0.0
 11
74.409039
 21
49.619712
 31
0.0
  0
LINE
  8
0
  6
BYBLOCK
 62
     0
 10
127.759739
 20
49.619712
 30
0.0
 11
120.429039
 21
49.619712
 31
0.0
  0
SOLID
  8
0
  6
BYBLOCK
 62
     0
 10
67.078339
 20
49.229712
 30
0.0
 11
67.078339
 21
50.009712
 31
0.0
 12
64.738339
 22
49.619712
 32
0.0
 13
64.738339
 23
49.619712
 33
0.0
  0
SOLID
  8
0
  6
BYBLOCK
 62
     0
 10
127.759739
 20
49.229712
 30
0.0
 11
127.759739
 21
50.009712
 31
0.0
 12
130.099739
 22
49.619712
 32
0.0
 13
130.099739
 23
49.619712
 33
0.0
  0
TEXT
  8
0
  6
BYBLOCK
 62
     0
 10
76.749039
 20
48.449712
 30
0.0
 40
2.34
  1
HORIZONTAL DUCT SIZE
  7
ROMANS
  0
POINT
  8
DEFPOINTS
  6
BYBLOCK
 62
     0
 10
64.738339
 20
58.169084
 30
0.0
  0
POINT
  8
DEFPOINTS
  6
BYBLOCK
 62
     0
 10
130.099739
 20
58.169084
 30
0.0
  0
POINT
  8
DEFPOINTS
  6
BYBLOCK
 62
     0
 10
130.099739
 20
49.619712
 30
0.0
  0
LINE
  8
LAYER1
  6
CONTINUOUS
 62
     7
 10
93.130339
 20
97.938684
 30
0.0
 11
94.349739
 21
98.297484
 31
0.0
  0
LINE
  8
LAYER1
  6
CONTINUOUS
 62
     7
 10
94.032539
 20
96.493084
 30
0.0
 11
95.566539
 21
97.351084
 31
0.0
  0
LINE
  8
LAYER1
  6
CONTINUOUS
 62
     7
 10
93.130339
 20
97.938684
 30
0.0
 11
95.522339
 21
97.351084
 31
0.0
  0
LINE
  8
LAYER1
  6
CONTINUOUS
 62
     7
 10
93.130339
 20
72.976084
 30
0.0
 11
94.349739
 21
73.337484
 31
0.0
  0
LINE
  8
LAYER1
  6
CONTINUOUS
 62
     7
 10
94.032539
 20
71.530484
 30
0.0
 11
95.566539
 21
72.027084
 31
0.0
  0
LINE
  8
LAYER1
  6
CONTINUOUS
 62
     7
 10
93.130339
 20
72.976084
 30
0.0
 11
95.522339
 21
72.027084
 31
0.0
  0
LINE
  8
0
  6
CONTINUOUS
 62
    19
 10
41.334461
 20
36.94705
 30
0.0
 11
45.668661
 21
36.94705
 31
0.0
  0
LINE
  8
0
  6
CONTINUOUS
 62
    19
 10
45.668661
 20
36.94705
 30
0.0
 11
45.668661
 21
32.61285
 31
0.0
  0
LINE
  8
0
  6
CONTINUOUS
 62
    19
 10
45.668661
 20
32.61285
 30
0.0
 11
41.334461
 21
32.61285
 31
0.0
  0
LINE
  8
0
  6
CONTINUOUS
 62
    19
 10
41.334461
 20
32.61285
 30
0.0
 11
41.334461
 21
36.94705
 31
0.0
  0
LINE
  8
0
  6
CONTINUOUS
 62
     7
 10
144.768939
 20
37.625096
 30
0.0
 11
149.103139
 21
37.625096
 31
0.0
  0
LINE
  8
0
  6
CONTINUOUS
 62
     7
 10
149.103139
 20
37.625096
 30
0.0
 11
149.103139
 21
33.290896
 31
0.0
  0
LINE
  8
0
  6
CONTINUOUS
 62
     7
 10
149.103139
 20
33.290896
 30
0.0
 11
144.768939
 21
33.290896
 31
0.0
  0
LINE
  8
0
  6
CONTINUOUS
 62
     7
 10
144.768939
 20
33.290896
 30
0.0
 11
144.768939
 21
37.625096
 31
0.0
  0
LINE
  8
0
  6
CONTINUOUS
 62
    19
 10
167.880339
 20
118.611284
 30
0.0
 11
172.214539
 21
118.611284
 31
0.0
  0
LINE
  8
0
  6
CONTINUOUS
 62
    19
 10
172.214539
 20
118.611284
 30
0.0
 11
172.214539
 21
114.277084
 31
0.0
  0
LINE
  8
0
  6
CONTINUOUS
 62
    19
 10
172.214539
 20
114.277084
 30
0.0
 11
167.880339
 21
114.277084
 31
0.0
  0
LINE
  8
0
  6
CONTINUOUS
 62
    19
 10
167.880339
 20
114.277084
 30
0.0
 11
167.880339
 21
118.611284
 31
0.0
  0
LINE
  8
0
  6
CONTINUOUS
 62
    19
 10
28.491739
 20
102.361284
 30
0.0
 11
40.407539
 21
102.361284
 31
0.0
  0
LINE
  8
0
  6
CONTINUOUS
 62
    19
 10
40.407539
 20
102.361284
 30
0.0
 11
40.407539
 21
65.888484
 31
0.0
  0
LINE
  8
0
  6
CONTINUOUS
 62
    19
 10
40.407539
 20
65.888484
 30
0.0
 11
28.491739
 21
65.888484
 31
0.0
  0
LINE
  8
0
  6
CONTINUOUS
 62
    19
 10
28.491739
 20
65.888484
 30
0.0
 11
28.491739
 21
102.361284
 31
0.0
  0
POINT
  8
DIM
  6
CONTINUOUS
 62
     7
 10
0.0
 20
0.0
 30
0.0
  0
LINE
  8
DIM
  6
CONTINUOUS
 62
     5
 10
233.411291
 20
92.209633
 30
0.0
 11
232.776891
 21
91.577833
 31
0.0
  0
TEXT
  8
DIM
  6
CONTINUOUS
 62
     7
 10
190.564769
 20
46.866094
 30
0.0
 40
2.6
  1
STANDARD INDUSTRY TOLERANCES APPLY.
  7
ROMANS
  0
TEXT
  8
DIM
  6
CONTINUOUS
 62
     7
 10
190.949769
 20
42.249508
 30
0.0
 40
2.6
  1
SPECIFICATIONS ARE SUBJECT TO CHANGE
  7
ROMANS
  0
TEXT
  8
DIM
  6
CONTINUOUS
 62
     7
 10
190.949769
 20
37.248207
 30
0.0
 40
2.6
  1
WITHOUT NOTICE.
  7
ROMANS
  0
TEXT
  8
0
  6
BYBLOCK
 62
     0
 10
87.809884
 20
4.188417
 30
0.0
 40
1.638
  1
PLUS 1-3/4"
  7
ROMANS
  0
LINE
  8
DIM
  6
CONTINUOUS
 62
     7
 10
214.640485
 20
23.11142
 30
0.0
 11
221.441125
 21
23.11142
 31
0.0
  0
LINE
  8
DIM
  6
CONTINUOUS
 62
     7
 10
214.610873
 20
16.312332
 30
0.0
 11
214.610873
 21
23.112972
 31
0.0
  0
LINE
  8
DIM
  6
CONTINUOUS
 62
     7
 10
221.441081
 20
16.312332
 30
0.0
 11
221.441081
 21
23.112972
 31
0.0
  0
LINE
  8
DIM
  6
CONTINUOUS
 62
     7
 10
214.640485
 20
16.28626
 30
0.0
 11
221.441125
 21
16.28626
 31
0.0
  0
LINE
  8
DIM
  6
CONTINUOUS
 62
     7
 10
222.203579
 20
18.086267
 30
0.0
 11
245.144767
 21
18.086267
 31
0.0
  0
TEXT
  8
DIM
  6
CONTINUOUS
 62
     7
 10
222.612014
 20
16.317908
 30
0.0
 40
1.08
  1
Excellence in Air Distribution
  0
LINE
  8
DIM
  6
CONTINUOUS
 62
     7
 10
215.38156
 20
22.352533
 30
0.0
 11
220.658544
 21
22.352533
 31
0.0
  0
LINE
  8
DIM
  6
CONTINUOUS
 62
     7
 10
216.866633
 20
20.744348
 30
0.0
 11
219.118661
 21
20.744348
 31
0.0
  0
LINE
  8
DIM
  6
CONTINUOUS
 62
     7
 10
216.866633
 20
18.604427
 30
0.0
 11
219.080869
 21
18.604427
 31
0.0
  0
LINE
  8
DIM
  6
CONTINUOUS
 62
     7
 10
215.38156
 20
17.024235
 30
0.0
 11
215.38156
 21
22.35521
 31
0.0
  0
LINE
  8
DIM
  6
CONTINUOUS
 62
     7
 10
216.866633
 20
18.610357
 30
0.0
 11
216.866633
 21
20.737689
 31
0.0
  0
LINE
  8
DIM
  6
CONTINUOUS
 62
     7
 10
220.658544
 20
17.024235
 30
0.0
 11
220.658544
 21
22.352171
 31
0.0
  0
LINE
  8
DIM
  6
CONTINUOUS
 62
     7
 10
219.108913
 20
18.572593
 30
0.0
 11
219.108913
 21
20.744348
 31
0.0
  0
LINE
  8
DIM
  6
CONTINUOUS
 62
     7
 10
215.392375
 20
17.017883
 30
0.0
 11
220.641126
 21
17.017883
 31
0.0
  0
LINE
  8
DIM
  6
CONTINUOUS
 62
     7
 10
216.172035
 20
21.645746
 30
0.0
 11
219.803223
 21
21.645746
 31
0.0
  0
LINE
  8
DIM
  6
CONTINUOUS
 62
     7
 10
216.172035
 20
17.681391
 30
0.0
 11
219.808739
 21
17.681391
 31
0.0
  0
LINE
  8
DIM
  6
CONTINUOUS
 62
     7
 10
219.807993
 20
17.681226
 30
0.0
 11
219.807993
 21
21.644336
 31
0.0
  0
LINE
  8
DIM
  6
CONTINUOUS
 62
     7
 10
216.172035
 20
17.687743
 30
0.0
 11
216.172035
 21
21.644336
 31
0.0
  0
LINE
  8
NEW
  6
CONTINUOUS
 62
     7
 10
223.79411
 20
22.551371
 30
0.0
 11
222.855673
 21
19.124998
 31
0.0
  0
LINE
  8
NEW
  6
CONTINUOUS
 62
     7
 10
226.031923
 20
22.515304
 30
0.0
 11
223.21661
 21
20.423413
 31
0.0
  0
LINE
  8
NEW
  6
CONTINUOUS
 62
     7
 10
224.118954
 20
21.036554
 30
0.0
 11
225.129579
 21
19.161066
 31
0.0
  0
LINE
  8
NEW
  6
CONTINUOUS
 62
     7
 10
227.114735
 20
22.515304
 30
0.0
 11
226.212392
 21
19.124998
 31
0.0
  0
LINE
  8
NEW
  6
CONTINUOUS
 62
     7
 10
226.68161
 20
20.964419
 30
0.0
 11
228.053173
 21
20.964419
 31
0.0
  0
LINE
  8
NEW
  6
CONTINUOUS
 62
     7
 10
227.83661
 20
20.928352
 30
0.0
 11
228.558485
 21
19.088931
 31
0.0
  0
ARC
  8
NEW
  6
CONTINUOUS
 62
     7
 10
228.292167
 20
21.765877
 30
0.0
 40
0.826742
 50
255.793274
 51
65.023699
  0
LINE
  8
NEW
  6
CONTINUOUS
 62
     7
 10
227.162943
 20
22.526282
 30
0.0
 11
228.635523
 21
22.526282
 31
0.0
  0
LINE
  8
NEW
  6
CONTINUOUS
 62
     7
 10
230.543642
 20
22.479237
 30
0.0
 11
229.904827
 21
20.13411
 31
0.0
  0
LINE
  8
NEW
  6
CONTINUOUS
 62
     7
 10
232.817548
 20
22.515304
 30
0.0
 11
232.143091
 21
20.093445
 31
0.0
  0
ARC
  8
NEW
  6
CONTINUOUS
 62
     7
 10
231.030895
 20
20.279465
 30
0.0
 40
1.134943
 50
187.170066
 51
350.566501
  0
LINE
  8
NEW
  6
CONTINUOUS
 62
     7
 10
236.174267
 20
22.515304
 30
0.0
 11
234.080829
 21
22.515304
 31
0.0
  0
LINE
  8
NEW
  6
CONTINUOUS
 62
     7
 10
234.947079
 20
20.928352
 30
0.0
 11
233.647704
 21
20.928352
 31
0.0
  0
LINE
  8
NEW
  6
CONTINUOUS
 62
     7
 10
235.271923
 20
19.161066
 30
0.0
 11
233.214579
 21
19.161066
 31
0.0
  0
LINE
  8
NEW
  6
CONTINUOUS
 62
     7
 10
234.080829
 20
22.515304
 30
0.0
 11
233.142392
 21
19.197133
 31
0.0
  0
ARC
  8
NEW
  6
CONTINUOUS
 62
     7
 10
238.377497
 20
21.620447
 30
0.0
 40
0.979728
 50
6.127177
 51
66.522243
  0
LINE
  8
NEW
  6
CONTINUOUS
 62
     7
 10
238.767814
 20
22.519068
 30
0.0
 11
238.102914
 21
22.519068
 31
0.0
  0
ARC
  8
NEW
  6
CONTINUOUS
 62
     7
 10
238.656544
 20
20.562387
 30
0.0
 40
2.027932
 50
106.081263
 51
224.206846
  0
LINE
  8
NEW
  6
CONTINUOUS
 62
     7
 10
237.210975
 20
19.14841
 30
0.0
 11
237.859658
 21
19.14841
 31
0.0
  0
ARC
  8
NEW
  6
CONTINUOUS
 62
     7
 10
237.462797
 20
20.663237
 30
0.0
 40
1.56595
 50
284.68067
 51
351.382977
  0
LINE
  8
NEW
  6
CONTINUOUS
 62
     7
 10
238.200217
 20
20.428612
 30
0.0
 11
239.01107
 21
20.428612
 31
0.0
  0
LINE
  8
NEW
  6
CONTINUOUS
 62
     7
 10
240.505517
 20
22.515304
 30
0.0
 11
242.671142
 21
22.515304
 31
0.0
  0
LINE
  8
NEW
  6
CONTINUOUS
 62
     7
 10
240.108485
 20
20.928352
 30
0.0
 11
241.371767
 21
20.928352
 31
0.0
  0
LINE
  8
NEW
  6
CONTINUOUS
 62
     7
 10
239.711454
 20
19.161066
 30
0.0
 11
241.69661
 21
19.161066
 31
0.0
  0
LINE
  8
NEW
  6
CONTINUOUS
 62
     7
 10
240.505517
 20
22.515304
 30
0.0
 11
239.67536
 21
19.197133
 31
0.0
  0
LINE
  8
NEW
  6
CONTINUOUS
 62
     7
 10
243.573485
 20
22.515304
 30
0.0
 11
242.671142
 21
19.124998
 31
0.0
  0
LINE
  8
NEW
  6
CONTINUOUS
 62
     7
 10
244.29536
 20
20.912864
 30
0.0
 11
244.87286
 21
19.161066
 31
0.0
  0
LINE
  8
NEW
  6
CONTINUOUS
 62
     7
 10
243.58676
 20
22.523621
 30
0.0
 11
245.042566
 21
22.523621
 31
0.0
  0
LINE
  8
NEW
  6
CONTINUOUS
 62
     7
 10
243.155071
 20
20.912864
 30
0.0
 11
244.601691
 21
20.912864
 31
0.0
  0
ARC
  8
NEW
  6
CONTINUOUS
 62
     7
 10
245.07449
 20
21.933299
 30
0.0
 40
0.587174
 50
353.554829
 51
94.014674
  0
ARC
  8
NEW
  6
CONTINUOUS
 62
     7
 10
244.923756
 20
21.883685
 30
0.0
 40
0.72964
 50
311.787022
 51
359.440889
  0
ARC
  8
NEW
  6
CONTINUOUS
 62
     7
 10
244.511509
 20
22.009352
 30
0.0
 40
1.117853
 50
258.779797
 51
323.487764
  0
POINT
  8
NEW
  6
CONTINUOUS
 62
     7
 10
308.0
 20
132.0
 30
0.0
  0
ENDSEC
  0
EOF
